  0
SECTION
  2
HEADER
  9
$SPLINETYPE
 70
     6
  9
$FILLMODE
 70
     1
  9
$LTSCALE
 40
1.000000000
  0
ENDSEC
  0
SECTION
  2
TABLES
  0
TABLE
  2
LTYPE
 70
     8
  0
LTYPE
  2
SOLID
 70
    64
  3

 72
    65
 73
     0
 40
0.000000000
  0
LTYPE
  2
DASH
 70
    64
  3

 72
    65
 73
     3
 40
3.500000000
 49
1.500000000
 49
-1.500000000
 49
0.500000000
  0
LTYPE
  2
CENTER
 70
    64
  3

 72
    65
 73
     4
 40
8.000000000
 49
4.500000000
 49
-1.500000000
 49
0.500000000
 49
-1.500000000
  0
LTYPE
  2
L_DASH
 70
    64
  3

 72
    65
 73
     1
 40
0.500000000
 49
0.500000000
  0
LTYPE
  2
FONT_5
 70
    64
  3

 72
    65
 73
     8
 40
9.000000000
 49
0.500000000
 49
-2.500000000
 49
0.500000000
 49
-1.500000000
 49
0.500000000
 49
-1.500000000
 49
0.500000000
 49
-1.500000000
  0
LTYPE
  2
FONT_6
 70
    64
  3

 72
    65
 73
    11
 40
8.000000000
 49
0.500000000
 49
-1.000000000
 49
0.500000000
 49
-1.000000000
 49
0.500000000
 49
-1.000000000
 49
0.500000000
 49
-1.000000000
 49
0.500000000
 49
-1.000000000
 49
0.500000000
  0
LTYPE
  2
FONT_7
 70
    64
  3

 72
    65
 73
     4
 40
8.000000000
 49
1.000000000
 49
-5.000000000
 49
1.000000000
 49
-1.000000000
  0
LTYPE
  2
FONT_8
 70
    64
  3

 72
    65
 73
     4
 40
8.000000000
 49
1.000000000
 49
-5.000000000
 49
1.000000000
 49
-1.000000000
  0
ENDTAB
  0
TABLE
  2
LAYER
 70
     1
  0
LAYER
  2
PLAIN_
 70
    64
 62
     7
  6
SOLID
  0
ENDTAB
  0
TABLE
  2
STYLE
 70
     0
  0
STYLE
  2
STANDARD
 70
    64
 40
0.000000000
 41
1.000000000
 50
0.000000000
 71
     0
 42
0.000000000
  3
txt.shx
  4

  0
ENDTAB
  0
TABLE
  2
UCS
 70
     0
  0
ENDTAB
  0
ENDSEC
  0
SECTION
  2
BLOCKS
  0
BLOCK
  2
*D1
  8
PLAIN_
 70
    65
 10
0.000000000
 20
0.000000000
 30
0.000000000
  3
*D1
  0
LINE
  8
PLAIN_
  6
SOLID
 62
     7
 10
262.025054932
 20
75.147727966
 30
0.000000000
 11
268.057800293
 21
74.369277954
 31
0.000000000
  0
LINE
  8
PLAIN_
  6
SOLID
 62
     7
 10
268.057800293
 20
74.369277954
 30
0.000000000
 11
262.603546143
 21
77.062034607
 31
0.000000000
  0
LINE
  8
PLAIN_
  6
SOLID
 62
     7
 10
262.603546143
 20
77.062034607
 30
0.000000000
 11
262.025054932
 21
75.147727966
 31
0.000000000
  0
LINE
  8
PLAIN_
  6
SOLID
 62
     7
 10
248.484176636
 20
79.424812317
 30
0.000000000
 11
242.450408936
 21
78.654487610
 31
0.000000000
  0
LINE
  8
PLAIN_
  6
SOLID
 62
     7
 10
242.450408936
 20
78.654487610
 30
0.000000000
 11
248.407913208
 21
77.426460266
 31
0.000000000
  0
LINE
  8
PLAIN_
  6
SOLID
 62
     7
 10
248.407913208
 20
77.426460266
 30
0.000000000
 11
248.484176636
 21
79.424812317
 31
0.000000000
  0
ARC
  8
PLAIN_
  6
SOLID
 62
     7
 10
242.450408936
 20
0.000045776
 30
0.000000000
 40
78.654441833
 50
70.999992328
 51
90.000000000
  0
ARC
  8
PLAIN_
  6
SOLID
 62
     7
 10
242.450408936
 20
0.000045776
 30
0.000000000
 40
78.654441833
 50
70.999992328
 51
90.000000000
  0
TEXT
  8
PLAIN_
  6
SOLID
 62
     7
 10
250.175827026
 20
81.531906128
 30
0.000000000
 40
6.000000000
  1
19%%d
 50
-9.824054890
 41
0.699897448
  0
ENDBLK
  0
BLOCK
  2
*D2
  8
PLAIN_
 70
    65
 10
0.000000000
 20
0.000000000
 30
0.000000000
  3
*D2
  0
LINE
  8
PLAIN_
  6
SOLID
 62
     7
 10
0.500000000
 20
-116.500000000
 30
0.000000000
 11
107.638137817
 21
-116.500000000
 31
0.000000000
  0
LINE
  8
PLAIN_
  6
SOLID
 62
     7
 10
107.138137817
 20
-116.500000000
 30
0.000000000
 11
107.138137817
 21
-62.131732941
 31
0.000000000
  0
LINE
  8
PLAIN_
  6
SOLID
 62
     7
 10
106.138237000
 20
-110.500000000
 30
0.000000000
 11
107.138137817
 21
-116.500000000
 31
0.000000000
  0
LINE
  8
PLAIN_
  6
SOLID
 62
     7
 10
107.138137817
 20
-116.500000000
 30
0.000000000
 11
108.138038635
 21
-110.500000000
 31
0.000000000
  0
LINE
  8
PLAIN_
  6
SOLID
 62
     7
 10
108.138038635
 20
-110.500000000
 30
0.000000000
 11
106.138237000
 21
-110.500000000
 31
0.000000000
  0
LINE
  8
PLAIN_
  6
SOLID
 62
     7
 10
107.138137817
 20
0.000000000
 30
0.000000000
 11
107.138137817
 21
-116.500000000
 31
0.000000000
  0
LINE
  8
PLAIN_
  6
SOLID
 62
     7
 10
107.138137817
 20
-116.500000000
 30
0.000000000
 11
107.138137817
 21
-62.131732941
 31
0.000000000
  0
TEXT
  8
PLAIN_
  6
SOLID
 62
     7
 10
104.138137817
 20
-84.179878235
 30
0.000000000
 40
6.000000000
  1
%%c
 50
90.000002504
 41
0.666615407
  0
TEXT
  8
PLAIN_
  6
SOLID
 62
     7
 10
104.138137817
 20
-78.879882813
 30
0.000000000
 40
6.000000000
  1
233
 50
90.000002504
 41
0.783230782
  0
ENDBLK
  0
BLOCK
  2
*L1
  8
PLAIN_
 70
    65
 10
0.000000000
 20
0.000000000
 30
0.000000000
  3
*L1
  0
LINE
  8
PLAIN_
  6
SOLID
 62
     7
 10
-185.739074707
 20
-70.569122314
 30
0.000000000
 11
-185.739074707
 21
-87.741271973
 31
0.000000000
  0
LINE
  8
PLAIN_
  6
SOLID
 62
     7
 10
-185.739074707
 20
-87.741271973
 30
0.000000000
 11
-219.708801270
 21
-131.293884277
 31
0.000000000
  0
LINE
  8
PLAIN_
  6
SOLID
 62
     7
 10
-184.239227295
 20
-79.569122314
 30
0.000000000
 11
-185.739074707
 21
-70.569122314
 31
0.000000000
  0
LINE
  8
PLAIN_
  6
SOLID
 62
     7
 10
-185.739074707
 20
-70.569122314
 30
0.000000000
 11
-187.238922119
 21
-79.569122314
 31
0.000000000
  0
LINE
  8
PLAIN_
  6
SOLID
 62
     7
 10
-187.238922119
 20
-79.569122314
 30
0.000000000
 11
-184.239227295
 21
-79.569122314
 31
0.000000000
  0
TEXT
  8
PLAIN_
  6
SOLID
 62
     7
 10
-248.312225342
 20
-147.976486206
 30
0.000000000
 40
9.000000000
  1
N%%d2 holes
 50
0.000013660
 41
0.706257526
  0
TEXT
  8
PLAIN_
  6
SOLID
 62
     7
 10
-248.312225342
 20
-161.476486206
 30
0.000000000
 40
9.000000000
  1
1" BSP
 50
0.000013660
 41
0.730177844
  0
ENDBLK
  0
BLOCK
  2
*D3
  8
PLAIN_
 70
    65
 10
0.000000000
 20
0.000000000
 30
0.000000000
  3
*D3
  0
LINE
  8
PLAIN_
  6
SOLID
 62
     7
 10
-144.000000000
 20
62.000000000
 30
0.000000000
 11
-144.000000000
 21
97.524017334
 31
0.000000000
  0
LINE
  8
PLAIN_
  6
SOLID
 62
     7
 10
-135.000000000
 20
68.000000000
 30
0.000000000
 11
-135.000000000
 21
97.524017334
 31
0.000000000
  0
LINE
  8
PLAIN_
  6
SOLID
 62
     7
 10
-144.000000000
 20
97.024017334
 30
0.000000000
 11
-162.456634521
 21
97.024017334
 31
0.000000000
  0
LINE
  8
PLAIN_
  6
SOLID
 62
     7
 10
-162.456634521
 20
97.024017334
 30
0.000000000
 11
-126.000000000
 21
97.024017334
 31
0.000000000
  0
LINE
  8
PLAIN_
  6
SOLID
 62
     7
 10
-150.000000000
 20
96.024116516
 30
0.000000000
 11
-144.000000000
 21
97.024017334
 31
0.000000000
  0
LINE
  8
PLAIN_
  6
SOLID
 62
     7
 10
-144.000000000
 20
97.024017334
 30
0.000000000
 11
-150.000000000
 21
98.023918152
 31
0.000000000
  0
LINE
  8
PLAIN_
  6
SOLID
 62
     7
 10
-150.000000000
 20
98.023918152
 30
0.000000000
 11
-150.000000000
 21
96.024116516
 31
0.000000000
  0
LINE
  8
PLAIN_
  6
SOLID
 62
     7
 10
-135.000000000
 20
97.024017334
 30
0.000000000
 11
-126.000000000
 21
97.024017334
 31
0.000000000
  0
LINE
  8
PLAIN_
  6
SOLID
 62
     7
 10
-126.000000000
 20
97.024017334
 30
0.000000000
 11
-162.456634521
 21
97.024017334
 31
0.000000000
  0
LINE
  8
PLAIN_
  6
SOLID
 62
     7
 10
-129.000000000
 20
98.023918152
 30
0.000000000
 11
-135.000000000
 21
97.024017334
 31
0.000000000
  0
LINE
  8
PLAIN_
  6
SOLID
 62
     7
 10
-135.000000000
 20
97.024017334
 30
0.000000000
 11
-129.000000000
 21
96.024116516
 31
0.000000000
  0
LINE
  8
PLAIN_
  6
SOLID
 62
     7
 10
-129.000000000
 20
96.024116516
 30
0.000000000
 11
-129.000000000
 21
98.023918152
 31
0.000000000
  0
TEXT
  8
PLAIN_
  6
SOLID
 62
     7
 10
-159.806640625
 20
100.024017334
 30
0.000000000
 40
6.000000000
  1
9
 50
0.000000000
 41
0.583230774
  0
ENDBLK
  0
BLOCK
  2
*D4
  8
PLAIN_
 70
    65
 10
0.000000000
 20
0.000000000
 30
0.000000000
  3
*D4
  0
LINE
  8
PLAIN_
  6
SOLID
 62
     7
 10
145.790618896
 20
-67.682907104
 30
0.000000000
 11
127.544548035
 21
-80.458885193
 31
0.000000000
  0
LINE
  8
PLAIN_
  6
SOLID
 62
     7
 10
242.450164795
 20
-123.964981079
 30
0.000000000
 11
242.450164795
 21
-140.275115967
 31
0.000000000
  0
LINE
  8
PLAIN_
  6
SOLID
 62
     7
 10
130.835601807
 20
-83.025421143
 30
0.000000000
 11
127.954124451
 21
-80.172096252
 31
0.000000000
  0
LINE
  8
PLAIN_
  6
SOLID
 62
     7
 10
127.954124451
 20
-80.172096252
 30
0.000000000
 11
129.754547119
 21
-83.805664063
 31
0.000000000
  0
LINE
  8
PLAIN_
  6
SOLID
 62
     7
 10
129.754547119
 20
-83.805664063
 30
0.000000000
 11
130.835601807
 21
-83.025421143
 31
0.000000000
  0
LINE
  8
PLAIN_
  6
SOLID
 62
     7
 10
238.441040039
 20
-140.384414673
 30
0.000000000
 11
242.450164795
 21
-139.775115967
 31
0.000000000
  0
LINE
  8
PLAIN_
  6
SOLID
 62
     7
 10
242.450164795
 20
-139.775115967
 30
0.000000000
 11
238.460113525
 21
-139.051345825
 31
0.000000000
  0
LINE
  8
PLAIN_
  6
SOLID
 62
     7
 10
238.460113525
 20
-139.051345825
 30
0.000000000
 11
238.441040039
 21
-140.384414673
 31
0.000000000
  0
ARC
  8
PLAIN_
  6
SOLID
 62
     7
 10
242.450164795
 20
-0.001464844
 30
0.000000000
 40
139.773651123
 50
214.999879408
 51
270.000000000
  0
ARC
  8
PLAIN_
  6
SOLID
 62
     7
 10
242.450164795
 20
-0.001464844
 30
0.000000000
 40
139.773651123
 50
214.999879408
 51
270.000000000
  0
TEXT
  8
PLAIN_
  6
SOLID
 62
     7
 10
178.003707886
 20
-121.772697449
 30
0.000000000
 40
4.000000000
  1
55%%d
 50
0.000000000
 41
0.699897448
  0
ENDBLK
  0
BLOCK
  2
*D5
  8
PLAIN_
 70
    65
 10
0.000000000
 20
0.000000000
 30
0.000000000
  3
*D5
  0
LINE
  8
PLAIN_
  6
SOLID
 62
     7
 10
5.750000000
 20
-87.500000000
 30
0.000000000
 11
73.410522461
 21
-87.500000000
 31
0.000000000
  0
LINE
  8
PLAIN_
  6
SOLID
 62
     7
 10
5.750000000
 20
87.500000000
 30
0.000000000
 11
73.410522461
 21
87.500000000
 31
0.000000000
  0
LINE
  8
PLAIN_
  6
SOLID
 62
     7
 10
72.660522461
 20
-87.500000000
 30
0.000000000
 11
72.660522461
 21
87.500000000
 31
0.000000000
  0
LINE
  8
PLAIN_
  6
SOLID
 62
     7
 10
71.660621643
 20
-81.500000000
 30
0.000000000
 11
72.660522461
 21
-87.500000000
 31
0.000000000
  0
LINE
  8
PLAIN_
  6
SOLID
 62
     7
 10
72.660522461
 20
-87.500000000
 30
0.000000000
 11
73.660423279
 21
-81.500000000
 31
0.000000000
  0
LINE
  8
PLAIN_
  6
SOLID
 62
     7
 10
73.660423279
 20
-81.500000000
 30
0.000000000
 11
71.660621643
 21
-81.500000000
 31
0.000000000
  0
LINE
  8
PLAIN_
  6
SOLID
 62
     7
 10
72.660522461
 20
87.500000000
 30
0.000000000
 11
72.660522461
 21
-87.500000000
 31
0.000000000
  0
LINE
  8
PLAIN_
  6
SOLID
 62
     7
 10
73.660423279
 20
81.500000000
 30
0.000000000
 11
72.660522461
 21
87.500000000
 31
0.000000000
  0
LINE
  8
PLAIN_
  6
SOLID
 62
     7
 10
72.660522461
 20
87.500000000
 30
0.000000000
 11
71.660621643
 21
81.500000000
 31
0.000000000
  0
LINE
  8
PLAIN_
  6
SOLID
 62
     7
 10
71.660621643
 20
81.500000000
 30
0.000000000
 11
73.660423279
 21
81.500000000
 31
0.000000000
  0
TEXT
  8
PLAIN_
  6
SOLID
 62
     7
 10
69.660522461
 20
-17.188390732
 30
0.000000000
 40
6.000000000
  1
%%c
 50
90.000002504
 41
0.666615407
  0
TEXT
  8
PLAIN_
  6
SOLID
 62
     7
 10
69.660522461
 20
-11.888392448
 30
0.000000000
 40
6.000000000
  1
175
 50
90.000002504
 41
0.783230782
  0
TEXT
  8
PLAIN_
  6
SOLID
 62
     7
 10
69.660522461
 20
4.011601448
 30
0.000000000
 40
6.000000000
  1
f7
 50
90.000002504
 41
0.733230750
  0
ENDBLK
  0
BLOCK
  2
*D6
  8
PLAIN_
 70
    65
 10
0.000000000
 20
0.000000000
 30
0.000000000
  3
*D6
  0
LINE
  8
PLAIN_
  6
SOLID
 62
     7
 10
19.899993896
 20
26.346511841
 30
0.000000000
 11
19.899993896
 21
34.314834595
 31
0.000000000
  0
LINE
  8
PLAIN_
  6
SOLID
 62
     7
 10
41.899993896
 20
13.499984741
 30
0.000000000
 11
41.899993896
 21
34.314834595
 31
0.000000000
  0
LINE
  8
PLAIN_
  6
SOLID
 62
     7
 10
19.899993896
 20
33.564834595
 30
0.000000000
 11
41.899993896
 21
33.564834595
 31
0.000000000
  0
LINE
  8
PLAIN_
  6
SOLID
 62
     7
 10
25.899993896
 20
34.564735413
 30
0.000000000
 11
19.899993896
 21
33.564834595
 31
0.000000000
  0
LINE
  8
PLAIN_
  6
SOLID
 62
     7
 10
19.899993896
 20
33.564834595
 30
0.000000000
 11
25.899993896
 21
32.564933777
 31
0.000000000
  0
LINE
  8
PLAIN_
  6
SOLID
 62
     7
 10
25.899993896
 20
32.564933777
 30
0.000000000
 11
25.899993896
 21
34.564735413
 31
0.000000000
  0
LINE
  8
PLAIN_
  6
SOLID
 62
     7
 10
41.899993896
 20
33.564834595
 30
0.000000000
 11
19.899993896
 21
33.564834595
 31
0.000000000
  0
LINE
  8
PLAIN_
  6
SOLID
 62
     7
 10
35.899993896
 20
32.564933777
 30
0.000000000
 11
41.899993896
 21
33.564834595
 31
0.000000000
  0
LINE
  8
PLAIN_
  6
SOLID
 62
     7
 10
41.899993896
 20
33.564834595
 30
0.000000000
 11
35.899993896
 21
34.564735413
 31
0.000000000
  0
LINE
  8
PLAIN_
  6
SOLID
 62
     7
 10
35.899993896
 20
34.564735413
 30
0.000000000
 11
35.899993896
 21
32.564933777
 31
0.000000000
  0
TEXT
  8
PLAIN_
  6
SOLID
 62
     7
 10
27.296842575
 20
36.564834595
 30
0.000000000
 40
6.000000000
  1
22
 50
0.000000000
 41
0.733230750
  0
ENDBLK
  0
BLOCK
  2
*D7
  8
PLAIN_
 70
    65
 10
0.000000000
 20
0.000000000
 30
0.000000000
  3
*D7
  0
LINE
  8
PLAIN_
  6
SOLID
 62
     7
 10
242.450164795
 20
-123.964973450
 30
0.000000000
 11
242.450164795
 21
-140.769439697
 31
0.000000000
  0
LINE
  8
PLAIN_
  6
SOLID
 62
     7
 10
360.348022461
 20
-38.307518005
 30
0.000000000
 11
376.329681396
 21
-43.500270844
 31
0.000000000
  0
LINE
  8
PLAIN_
  6
SOLID
 62
     7
 10
246.440246582
 20
-139.545867920
 30
0.000000000
 11
242.450164795
 21
-140.269439697
 31
0.000000000
  0
LINE
  8
PLAIN_
  6
SOLID
 62
     7
 10
242.450164795
 20
-140.269439697
 30
0.000000000
 11
246.459259033
 21
-140.878936768
 31
0.000000000
  0
LINE
  8
PLAIN_
  6
SOLID
 62
     7
 10
246.459259033
 20
-140.878936768
 30
0.000000000
 11
246.440246582
 21
-139.545867920
 31
0.000000000
  0
LINE
  8
PLAIN_
  6
SOLID
 62
     7
 10
375.194946289
 20
-47.346992493
 30
0.000000000
 11
375.854156494
 21
-43.345764160
 31
0.000000000
  0
LINE
  8
PLAIN_
  6
SOLID
 62
     7
 10
375.854156494
 20
-43.345764160
 30
0.000000000
 11
373.932983398
 21
-46.916969299
 31
0.000000000
  0
LINE
  8
PLAIN_
  6
SOLID
 62
     7
 10
373.932983398
 20
-46.916969299
 30
0.000000000
 11
375.194946289
 21
-47.346992493
 31
0.000000000
  0
ARC
  8
PLAIN_
  6
SOLID
 62
     7
 10
242.450164795
 20
-0.000183105
 30
0.000000000
 40
140.269256592
 50
270.000000000
 51
342.000001323
  0
ARC
  8
PLAIN_
  6
SOLID
 62
     7
 10
242.450164795
 20
-0.000183105
 30
0.000000000
 40
140.269256592
 50
270.000000000
 51
342.000001323
  0
TEXT
  8
PLAIN_
  6
SOLID
 62
     7
 10
320.458892822
 20
-107.945236206
 30
0.000000000
 40
4.000000000
  1
72%%d
 50
0.000000000
 41
0.699897448
  0
ENDBLK
  0
BLOCK
  2
*H1
  8
PLAIN_
 70
    65
 10
0.000000000
 20
0.000000000
 30
0.000000000
  3
*H1
  0
LINE
  8
PLAIN_
  6
SOLID
 62
     7
 10
-2.067199707
 20
-97.445861816
 30
0.000000000
 11
0.000000000
 21
-95.378677368
 31
0.000000000
  0
LINE
  8
PLAIN_
  6
SOLID
 62
     7
 10
-0.687347412
 20
-91.823387146
 30
0.000000000
 11
-6.201568604
 21
-97.337593079
 31
0.000000000
  0
LINE
  8
PLAIN_
  6
SOLID
 62
     7
 10
-10.335937500
 20
-97.229339600
 30
0.000000000
 11
-4.980346680
 21
-91.873733521
 31
0.000000000
  0
LINE
  8
PLAIN_
  6
SOLID
 62
     7
 10
-8.324340820
 20
-90.975097656
 30
0.000000000
 11
-14.470306396
 21
-97.121070862
 31
0.000000000
  0
LINE
  8
PLAIN_
  6
SOLID
 62
     7
 10
-15.000000000
 20
-93.408111572
 30
0.000000000
 11
-11.801300049
 21
-90.209419250
 31
0.000000000
  0
ENDBLK
  0
BLOCK
  2
*D8
  8
PLAIN_
 70
    65
 10
0.000000000
 20
0.000000000
 30
0.000000000
  3
*D8
  0
LINE
  8
PLAIN_
  6
SOLID
 62
     7
 10
15.899993896
 20
-6.750000000
 30
0.000000000
 11
15.899993896
 21
-38.135223389
 31
0.000000000
  0
LINE
  8
PLAIN_
  6
SOLID
 62
     7
 10
41.899993896
 20
-13.500045776
 30
0.000000000
 11
41.899993896
 21
-38.135223389
 31
0.000000000
  0
LINE
  8
PLAIN_
  6
SOLID
 62
     7
 10
15.899993896
 20
-37.385223389
 30
0.000000000
 11
41.899993896
 21
-37.385223389
 31
0.000000000
  0
LINE
  8
PLAIN_
  6
SOLID
 62
     7
 10
21.899993896
 20
-36.385322571
 30
0.000000000
 11
15.899993896
 21
-37.385223389
 31
0.000000000
  0
LINE
  8
PLAIN_
  6
SOLID
 62
     7
 10
15.899993896
 20
-37.385223389
 30
0.000000000
 11
21.899993896
 21
-38.385124207
 31
0.000000000
  0
LINE
  8
PLAIN_
  6
SOLID
 62
     7
 10
21.899993896
 20
-38.385124207
 30
0.000000000
 11
21.899993896
 21
-36.385322571
 31
0.000000000
  0
LINE
  8
PLAIN_
  6
SOLID
 62
     7
 10
41.899993896
 20
-37.385223389
 30
0.000000000
 11
15.899993896
 21
-37.385223389
 31
0.000000000
  0
LINE
  8
PLAIN_
  6
SOLID
 62
     7
 10
35.899993896
 20
-38.385124207
 30
0.000000000
 11
41.899993896
 21
-37.385223389
 31
0.000000000
  0
LINE
  8
PLAIN_
  6
SOLID
 62
     7
 10
41.899993896
 20
-37.385223389
 30
0.000000000
 11
35.899993896
 21
-36.385322571
 31
0.000000000
  0
LINE
  8
PLAIN_
  6
SOLID
 62
     7
 10
35.899993896
 20
-36.385322571
 30
0.000000000
 11
35.899993896
 21
-38.385124207
 31
0.000000000
  0
TEXT
  8
PLAIN_
  6
SOLID
 62
     7
 10
25.955137253
 20
-34.385223389
 30
0.000000000
 40
6.000000000
  1
26
 50
0.000000000
 41
0.774923086
  0
ENDBLK
  0
BLOCK
  2
*D9
  8
PLAIN_
 70
    65
 10
0.000000000
 20
0.000000000
 30
0.000000000
  3
*D9
  0
LINE
  8
PLAIN_
  6
SOLID
 62
     7
 10
39.149993896
 20
-6.000000000
 30
0.000000000
 11
52.056884766
 21
-6.000000000
 31
0.000000000
  0
LINE
  8
PLAIN_
  6
SOLID
 62
     7
 10
39.149993896
 20
6.000000000
 30
0.000000000
 11
52.056884766
 21
6.000000000
 31
0.000000000
  0
LINE
  8
PLAIN_
  6
SOLID
 62
     7
 10
51.306884766
 20
-6.000000000
 30
0.000000000
 11
51.306884766
 21
-65.369575500
 31
0.000000000
  0
LINE
  8
PLAIN_
  6
SOLID
 62
     7
 10
51.306884766
 20
-65.369575500
 30
0.000000000
 11
51.306884766
 21
15.000000000
 31
0.000000000
  0
LINE
  8
PLAIN_
  6
SOLID
 62
     7
 10
52.306785583
 20
-12.000000954
 30
0.000000000
 11
51.306884766
 21
-6.000000000
 31
0.000000000
  0
LINE
  8
PLAIN_
  6
SOLID
 62
     7
 10
51.306884766
 20
-6.000000000
 30
0.000000000
 11
50.306983948
 21
-12.000000954
 31
0.000000000
  0
LINE
  8
PLAIN_
  6
SOLID
 62
     7
 10
50.306983948
 20
-12.000000954
 30
0.000000000
 11
52.306785583
 21
-12.000000954
 31
0.000000000
  0
LINE
  8
PLAIN_
  6
SOLID
 62
     7
 10
51.306884766
 20
6.000000000
 30
0.000000000
 11
51.306884766
 21
15.000000000
 31
0.000000000
  0
LINE
  8
PLAIN_
  6
SOLID
 62
     7
 10
51.306884766
 20
15.000000000
 30
0.000000000
 11
51.306884766
 21
-65.369575500
 31
0.000000000
  0
LINE
  8
PLAIN_
  6
SOLID
 62
     7
 10
50.306983948
 20
12.000000000
 30
0.000000000
 11
51.306884766
 21
6.000000000
 31
0.000000000
  0
LINE
  8
PLAIN_
  6
SOLID
 62
     7
 10
51.306884766
 20
6.000000000
 30
0.000000000
 11
52.306785583
 21
12.000000000
 31
0.000000000
  0
LINE
  8
PLAIN_
  6
SOLID
 62
     7
 10
52.306785583
 20
12.000000000
 30
0.000000000
 11
50.306983948
 21
12.000000000
 31
0.000000000
  0
TEXT
  8
PLAIN_
  6
SOLID
 62
     7
 10
48.306884766
 20
-62.719577789
 30
0.000000000
 40
6.000000000
  1
M
 50
90.000002504
 41
0.666615407
  0
TEXT
  8
PLAIN_
  6
SOLID
 62
     7
 10
48.306884766
 20
-57.419578552
 30
0.000000000
 40
6.000000000
  1
12
 50
90.000002504
 41
0.733230750
  0
ENDBLK
  0
BLOCK
  2
*D10
  8
PLAIN_
 70
    65
 10
0.000000000
 20
0.000000000
 30
0.000000000
  3
*D10
  0
LINE
  8
PLAIN_
  6
SOLID
 62
     7
 10
0.000000000
 20
105.750305176
 30
0.000000000
 11
0.000000000
 21
117.668334961
 31
0.000000000
  0
LINE
  8
PLAIN_
  6
SOLID
 62
     7
 10
5.000000000
 20
88.250000000
 30
0.000000000
 11
5.000000000
 21
117.668334961
 31
0.000000000
  0
LINE
  8
PLAIN_
  6
SOLID
 62
     7
 10
0.000000000
 20
116.918334961
 30
0.000000000
 11
-9.000000000
 21
116.918334961
 31
0.000000000
  0
LINE
  8
PLAIN_
  6
SOLID
 62
     7
 10
-9.000000000
 20
116.918334961
 30
0.000000000
 11
19.034275055
 21
116.918334961
 31
0.000000000
  0
LINE
  8
PLAIN_
  6
SOLID
 62
     7
 10
-6.000000000
 20
115.918434143
 30
0.000000000
 11
0.000000000
 21
116.918334961
 31
0.000000000
  0
LINE
  8
PLAIN_
  6
SOLID
 62
     7
 10
0.000000000
 20
116.918334961
 30
0.000000000
 11
-6.000000000
 21
117.918235779
 31
0.000000000
  0
LINE
  8
PLAIN_
  6
SOLID
 62
     7
 10
-6.000000000
 20
117.918235779
 30
0.000000000
 11
-6.000000000
 21
115.918434143
 31
0.000000000
  0
LINE
  8
PLAIN_
  6
SOLID
 62
     7
 10
5.000000000
 20
116.918334961
 30
0.000000000
 11
19.034275055
 21
116.918334961
 31
0.000000000
  0
LINE
  8
PLAIN_
  6
SOLID
 62
     7
 10
19.034275055
 20
116.918334961
 30
0.000000000
 11
-9.000000000
 21
116.918334961
 31
0.000000000
  0
LINE
  8
PLAIN_
  6
SOLID
 62
     7
 10
11.000000000
 20
117.918235779
 30
0.000000000
 11
5.000000000
 21
116.918334961
 31
0.000000000
  0
LINE
  8
PLAIN_
  6
SOLID
 62
     7
 10
5.000000000
 20
116.918334961
 30
0.000000000
 11
11.000000000
 21
115.918434143
 31
0.000000000
  0
LINE
  8
PLAIN_
  6
SOLID
 62
     7
 10
11.000000000
 20
115.918434143
 30
0.000000000
 11
11.000000000
 21
117.918235779
 31
0.000000000
  0
TEXT
  8
PLAIN_
  6
SOLID
 62
     7
 10
12.884890556
 20
119.918334961
 30
0.000000000
 40
6.000000000
  1
5
 50
0.000000000
 41
0.583230774
  0
ENDBLK
  0
BLOCK
  2
*D11
  8
PLAIN_
 70
    65
 10
0.000000000
 20
0.000000000
 30
0.000000000
  3
*D11
  0
LINE
  8
PLAIN_
  6
SOLID
 62
     7
 10
0.000000000
 20
105.750305176
 30
0.000000000
 11
0.000000000
 21
135.567840576
 31
0.000000000
  0
LINE
  8
PLAIN_
  6
SOLID
 62
     7
 10
41.899993896
 20
13.499984741
 30
0.000000000
 11
41.899993896
 21
135.567840576
 31
0.000000000
  0
LINE
  8
PLAIN_
  6
SOLID
 62
     7
 10
0.000000000
 20
134.817840576
 30
0.000000000
 11
41.899993896
 21
134.817840576
 31
0.000000000
  0
LINE
  8
PLAIN_
  6
SOLID
 62
     7
 10
6.000000954
 20
135.817733765
 30
0.000000000
 11
0.000000000
 21
134.817840576
 31
0.000000000
  0
LINE
  8
PLAIN_
  6
SOLID
 62
     7
 10
0.000000000
 20
134.817840576
 30
0.000000000
 11
6.000000954
 21
133.817947388
 31
0.000000000
  0
LINE
  8
PLAIN_
  6
SOLID
 62
     7
 10
6.000000954
 20
133.817947388
 30
0.000000000
 11
6.000000954
 21
135.817733765
 31
0.000000000
  0
LINE
  8
PLAIN_
  6
SOLID
 62
     7
 10
41.899993896
 20
134.817840576
 30
0.000000000
 11
0.000000000
 21
134.817840576
 31
0.000000000
  0
LINE
  8
PLAIN_
  6
SOLID
 62
     7
 10
35.899993896
 20
133.817947388
 30
0.000000000
 11
41.899993896
 21
134.817840576
 31
0.000000000
  0
LINE
  8
PLAIN_
  6
SOLID
 62
     7
 10
41.899993896
 20
134.817840576
 30
0.000000000
 11
35.899993896
 21
135.817733765
 31
0.000000000
  0
LINE
  8
PLAIN_
  6
SOLID
 62
     7
 10
35.899993896
 20
135.817733765
 30
0.000000000
 11
35.899993896
 21
133.817947388
 31
0.000000000
  0
TEXT
  8
PLAIN_
  6
SOLID
 62
     7
 10
12.496856689
 20
137.817840576
 30
0.000000000
 40
6.000000000
  1
42
 50
0.000000000
 41
0.733230750
  0
TEXT
  8
PLAIN_
  6
SOLID
 62
     7
 10
24.896850586
 20
144.117843628
 30
0.000000000
 40
4.199999809
  1
+0.1
 50
0.000000000
 41
0.745730775
  0
TEXT
  8
PLAIN_
  6
SOLID
 62
     7
 10
24.896850586
 20
135.117843628
 30
0.000000000
 40
4.199999809
  1
-0.0
 50
0.000000000
 41
0.808230732
  0
ENDBLK
  0
BLOCK
  2
*D12
  8
PLAIN_
 70
    65
 10
0.000000000
 20
0.000000000
 30
0.000000000
  3
*D12
  0
LINE
  8
PLAIN_
  6
SOLID
 62
     7
 10
6.158081055
 20
-104.500000000
 30
0.000000000
 11
90.093231201
 21
-104.500000000
 31
0.000000000
  0
LINE
  8
PLAIN_
  6
SOLID
 62
     7
 10
89.343231201
 20
-104.500000000
 30
0.000000000
 11
89.343231201
 21
12.441177368
 31
0.000000000
  0
LINE
  8
PLAIN_
  6
SOLID
 62
     7
 10
88.343330383
 20
-98.500000000
 30
0.000000000
 11
89.343231201
 21
-104.500000000
 31
0.000000000
  0
LINE
  8
PLAIN_
  6
SOLID
 62
     7
 10
89.343231201
 20
-104.500000000
 30
0.000000000
 11
90.343132019
 21
-98.500000000
 31
0.000000000
  0
LINE
  8
PLAIN_
  6
SOLID
 62
     7
 10
90.343132019
 20
-98.500000000
 30
0.000000000
 11
88.343330383
 21
-98.500000000
 31
0.000000000
  0
LINE
  8
PLAIN_
  6
SOLID
 62
     7
 10
89.343231201
 20
12.441177368
 30
0.000000000
 11
89.343231201
 21
-104.500000000
 31
0.000000000
  0
TEXT
  8
PLAIN_
  6
SOLID
 62
     7
 10
86.343231201
 20
-57.487525940
 30
0.000000000
 40
6.000000000
  1
%%c
 50
90.000002504
 41
0.666615407
  0
TEXT
  8
PLAIN_
  6
SOLID
 62
     7
 10
86.343231201
 20
-52.187526703
 30
0.000000000
 40
6.000000000
  1
210
 50
90.000002504
 41
0.783230782
  0
ENDBLK
  0
BLOCK
  2
*D13
  8
PLAIN_
 70
    65
 10
0.000000000
 20
0.000000000
 30
0.000000000
  3
*D13
  0
LINE
  8
PLAIN_
  6
SOLID
 62
     7
 10
-15.000000000
 20
-114.435211182
 30
0.000000000
 11
-15.000000000
 21
-146.124786377
 31
0.000000000
  0
LINE
  8
PLAIN_
  6
SOLID
 62
     7
 10
0.000000000
 20
-117.250000000
 30
0.000000000
 11
0.000000000
 21
-146.124786377
 31
0.000000000
  0
LINE
  8
PLAIN_
  6
SOLID
 62
     7
 10
-15.000000000
 20
-145.374786377
 30
0.000000000
 11
-37.358680725
 21
-145.374786377
 31
0.000000000
  0
LINE
  8
PLAIN_
  6
SOLID
 62
     7
 10
-37.358680725
 20
-145.374786377
 30
0.000000000
 11
9.000000000
 21
-145.374786377
 31
0.000000000
  0
LINE
  8
PLAIN_
  6
SOLID
 62
     7
 10
-21.000000000
 20
-146.374679565
 30
0.000000000
 11
-15.000000000
 21
-145.374786377
 31
0.000000000
  0
LINE
  8
PLAIN_
  6
SOLID
 62
     7
 10
-15.000000000
 20
-145.374786377
 30
0.000000000
 11
-21.000000000
 21
-144.374893188
 31
0.000000000
  0
LINE
  8
PLAIN_
  6
SOLID
 62
     7
 10
-21.000000000
 20
-144.374893188
 30
0.000000000
 11
-21.000000000
 21
-146.374679565
 31
0.000000000
  0
LINE
  8
PLAIN_
  6
SOLID
 62
     7
 10
0.000000000
 20
-145.374786377
 30
0.000000000
 11
9.000000000
 21
-145.374786377
 31
0.000000000
  0
LINE
  8
PLAIN_
  6
SOLID
 62
     7
 10
9.000000000
 20
-145.374786377
 30
0.000000000
 11
-37.358680725
 21
-145.374786377
 31
0.000000000
  0
LINE
  8
PLAIN_
  6
SOLID
 62
     7
 10
6.000000000
 20
-144.374893188
 30
0.000000000
 11
0.000000000
 21
-145.374786377
 31
0.000000000
  0
LINE
  8
PLAIN_
  6
SOLID
 62
     7
 10
0.000000000
 20
-145.374786377
 30
0.000000000
 11
6.000000000
 21
-146.374679565
 31
0.000000000
  0
LINE
  8
PLAIN_
  6
SOLID
 62
     7
 10
6.000000000
 20
-146.374679565
 30
0.000000000
 11
6.000000000
 21
-144.374893188
 31
0.000000000
  0
TEXT
  8
PLAIN_
  6
SOLID
 62
     7
 10
-34.708679199
 20
-142.374786377
 30
0.000000000
 40
6.000000000
  1
15
 50
0.000000000
 41
0.733230750
  0
ENDBLK
  0
BLOCK
  2
*D14
  8
PLAIN_
 70
    65
 10
0.000000000
 20
0.000000000
 30
0.000000000
  3
*D14
  0
LINE
  8
PLAIN_
  6
SOLID
 62
     7
 10
268.718597412
 20
97.238189697
 30
0.000000000
 11
268.718597412
 21
142.266754150
 31
0.000000000
  0
LINE
  8
PLAIN_
  6
SOLID
 62
     7
 10
281.451599121
 20
96.630767822
 30
0.000000000
 11
281.451599121
 21
142.266754150
 31
0.000000000
  0
LINE
  8
PLAIN_
  6
SOLID
 62
     7
 10
268.718597412
 20
141.516754150
 30
0.000000000
 11
166.709320068
 21
141.516754150
 31
0.000000000
  0
LINE
  8
PLAIN_
  6
SOLID
 62
     7
 10
166.709320068
 20
141.516754150
 30
0.000000000
 11
290.451599121
 21
141.516754150
 31
0.000000000
  0
LINE
  8
PLAIN_
  6
SOLID
 62
     7
 10
262.718597412
 20
140.516860962
 30
0.000000000
 11
268.718597412
 21
141.516754150
 31
0.000000000
  0
LINE
  8
PLAIN_
  6
SOLID
 62
     7
 10
268.718597412
 20
141.516754150
 30
0.000000000
 11
262.718597412
 21
142.516647339
 31
0.000000000
  0
LINE
  8
PLAIN_
  6
SOLID
 62
     7
 10
262.718597412
 20
142.516647339
 30
0.000000000
 11
262.718597412
 21
140.516860962
 31
0.000000000
  0
LINE
  8
PLAIN_
  6
SOLID
 62
     7
 10
281.451599121
 20
141.516754150
 30
0.000000000
 11
290.451599121
 21
141.516754150
 31
0.000000000
  0
LINE
  8
PLAIN_
  6
SOLID
 62
     7
 10
290.451599121
 20
141.516754150
 30
0.000000000
 11
166.709320068
 21
141.516754150
 31
0.000000000
  0
LINE
  8
PLAIN_
  6
SOLID
 62
     7
 10
287.451599121
 20
142.516647339
 30
0.000000000
 11
281.451599121
 21
141.516754150
 31
0.000000000
  0
LINE
  8
PLAIN_
  6
SOLID
 62
     7
 10
281.451599121
 20
141.516754150
 30
0.000000000
 11
287.451599121
 21
140.516860962
 31
0.000000000
  0
LINE
  8
PLAIN_
  6
SOLID
 62
     7
 10
287.451599121
 20
140.516860962
 30
0.000000000
 11
287.451599121
 21
142.516647339
 31
0.000000000
  0
TEXT
  8
PLAIN_
  6
SOLID
 62
     7
 10
169.359313965
 20
144.516754150
 30
0.000000000
 40
6.000000000
  1
N%%d2 HOLES
 50
0.000000000
 41
0.849897455
  0
TEXT
  8
PLAIN_
  6
SOLID
 62
     7
 10
217.059295654
 20
144.516754150
 30
0.000000000
 40
6.000000000
  1
1/4"BSP
 50
0.000000000
 41
0.840373630
  0
ENDBLK
  0
BLOCK
  2
*D15
  8
PLAIN_
 70
    65
 10
0.000000000
 20
0.000000000
 30
0.000000000
  3
*D15
  0
LINE
  8
PLAIN_
  6
SOLID
 62
     7
 10
225.389862061
 20
98.533828735
 30
0.000000000
 11
242.450531006
 21
-0.000091553
 31
0.000000000
  0
LINE
  8
PLAIN_
  6
SOLID
 62
     7
 10
227.398742676
 20
92.792381287
 30
0.000000000
 11
225.389862061
 21
98.533828735
 31
0.000000000
  0
LINE
  8
PLAIN_
  6
SOLID
 62
     7
 10
225.389862061
 20
98.533828735
 30
0.000000000
 11
225.428253174
 21
92.451210022
 31
0.000000000
  0
LINE
  8
PLAIN_
  6
SOLID
 62
     7
 10
225.428253174
 20
92.451210022
 30
0.000000000
 11
227.398742676
 21
92.792381287
 31
0.000000000
  0
TEXT
  8
PLAIN_
  6
SOLID
 62
     7
 10
229.351608276
 20
93.237007141
 30
0.000000000
 40
6.000000000
  1
R
 50
-80.176906402
 41
0.583230774
  0
TEXT
  8
PLAIN_
  6
SOLID
 62
     7
 10
230.255828857
 20
88.014709473
 30
0.000000000
 40
6.000000000
  1
100
 50
-80.176906402
 41
0.783230782
  0
ENDBLK
  0
BLOCK
  2
*D16
  8
PLAIN_
 70
    65
 10
0.000000000
 20
0.000000000
 30
0.000000000
  3
*D16
  0
LINE
  8
PLAIN_
  6
SOLID
 62
     7
 10
-139.750000000
 20
62.500000000
 30
0.000000000
 11
-233.169677734
 21
62.500000000
 31
0.000000000
  0
LINE
  8
PLAIN_
  6
SOLID
 62
     7
 10
-232.419677734
 20
-55.762527466
 30
0.000000000
 11
-232.419677734
 21
62.500000000
 31
0.000000000
  0
LINE
  8
PLAIN_
  6
SOLID
 62
     7
 10
-232.419677734
 20
62.500000000
 30
0.000000000
 11
-232.419677734
 21
-55.762527466
 31
0.000000000
  0
LINE
  8
PLAIN_
  6
SOLID
 62
     7
 10
-231.419784546
 20
56.500000000
 30
0.000000000
 11
-232.419677734
 21
62.500000000
 31
0.000000000
  0
LINE
  8
PLAIN_
  6
SOLID
 62
     7
 10
-232.419677734
 20
62.500000000
 30
0.000000000
 11
-233.419570923
 21
56.500000000
 31
0.000000000
  0
LINE
  8
PLAIN_
  6
SOLID
 62
     7
 10
-233.419570923
 20
56.500000000
 30
0.000000000
 11
-231.419784546
 21
56.500000000
 31
0.000000000
  0
TEXT
  8
PLAIN_
  6
SOLID
 62
     7
 10
-235.419677734
 20
-6.272604942
 30
0.000000000
 40
6.000000000
  1
%%c
 50
90.000002504
 41
0.666615407
  0
TEXT
  8
PLAIN_
  6
SOLID
 62
     7
 10
-235.419677734
 20
-0.972606957
 30
0.000000000
 40
6.000000000
  1
125
 50
90.000002504
 41
0.783230782
  0
TEXT
  8
PLAIN_
  6
SOLID
 62
     7
 10
-235.419677734
 20
14.927387238
 30
0.000000000
 40
6.000000000
  1
f7
 50
90.000002504
 41
0.733230750
  0
ENDBLK
  0
BLOCK
  2
*D17
  8
PLAIN_
 70
    65
 10
0.000000000
 20
0.000000000
 30
0.000000000
  3
*D17
  0
LINE
  8
PLAIN_
  6
SOLID
 62
     7
 10
-98.750000000
 20
-121.000000000
 30
0.000000000
 11
-250.980712891
 21
-121.000000000
 31
0.000000000
  0
LINE
  8
PLAIN_
  6
SOLID
 62
     7
 10
-98.250000000
 20
121.000000000
 30
0.000000000
 11
-250.980712891
 21
121.000000000
 31
0.000000000
  0
LINE
  8
PLAIN_
  6
SOLID
 62
     7
 10
-250.230712891
 20
-121.000000000
 30
0.000000000
 11
-250.230712891
 21
121.000000000
 31
0.000000000
  0
LINE
  8
PLAIN_
  6
SOLID
 62
     7
 10
-251.230606079
 20
-115.000000000
 30
0.000000000
 11
-250.230712891
 21
-121.000000000
 31
0.000000000
  0
LINE
  8
PLAIN_
  6
SOLID
 62
     7
 10
-250.230712891
 20
-121.000000000
 30
0.000000000
 11
-249.230819702
 21
-115.000000000
 31
0.000000000
  0
LINE
  8
PLAIN_
  6
SOLID
 62
     7
 10
-249.230819702
 20
-115.000000000
 30
0.000000000
 11
-251.230606079
 21
-115.000000000
 31
0.000000000
  0
LINE
  8
PLAIN_
  6
SOLID
 62
     7
 10
-250.230712891
 20
121.000000000
 30
0.000000000
 11
-250.230712891
 21
-121.000000000
 31
0.000000000
  0
LINE
  8
PLAIN_
  6
SOLID
 62
     7
 10
-249.230819702
 20
115.000000000
 30
0.000000000
 11
-250.230712891
 21
121.000000000
 31
0.000000000
  0
LINE
  8
PLAIN_
  6
SOLID
 62
     7
 10
-250.230712891
 20
121.000000000
 30
0.000000000
 11
-251.230606079
 21
115.000000000
 31
0.000000000
  0
LINE
  8
PLAIN_
  6
SOLID
 62
     7
 10
-251.230606079
 20
115.000000000
 30
0.000000000
 11
-249.230819702
 21
115.000000000
 31
0.000000000
  0
TEXT
  8
PLAIN_
  6
SOLID
 62
     7
 10
-253.230712891
 20
-13.124567986
 30
0.000000000
 40
6.000000000
  1
%%c
 50
90.000002504
 41
0.666615407
  0
TEXT
  8
PLAIN_
  6
SOLID
 62
     7
 10
-253.230712891
 20
-7.824570179
 30
0.000000000
 40
6.000000000
  1
242
 50
90.000002504
 41
0.783230782
  0
TEXT
  8
PLAIN_
  6
SOLID
 62
     7
 10
-259.530700684
 20
9.875424385
 30
0.000000000
 40
4.199999809
  1
+0.1
 50
90.000002504
 41
0.745730775
  0
TEXT
  8
PLAIN_
  6
SOLID
 62
     7
 10
-250.530700684
 20
9.875424385
 30
0.000000000
 40
4.199999809
  1
+0.3
 50
90.000002504
 41
0.808230732
  0
ENDBLK
  0
BLOCK
  2
*D18
  8
PLAIN_
 70
    65
 10
0.000000000
 20
0.000000000
 30
0.000000000
  3
*D18
  0
LINE
  8
PLAIN_
  6
SOLID
 62
     7
 10
-185.000000000
 20
-79.595756531
 30
0.000000000
 11
-185.000000000
 21
-158.692352295
 31
0.000000000
  0
LINE
  8
PLAIN_
  6
SOLID
 62
     7
 10
0.000000000
 20
-117.000000000
 30
0.000000000
 11
0.000000000
 21
-158.692352295
 31
0.000000000
  0
LINE
  8
PLAIN_
  6
SOLID
 62
     7
 10
-185.000000000
 20
-158.192352295
 30
0.000000000
 11
0.000000000
 21
-158.192352295
 31
0.000000000
  0
LINE
  8
PLAIN_
  6
SOLID
 62
     7
 10
-179.000000000
 20
-157.192459106
 30
0.000000000
 11
-185.000000000
 21
-158.192352295
 31
0.000000000
  0
LINE
  8
PLAIN_
  6
SOLID
 62
     7
 10
-185.000000000
 20
-158.192352295
 30
0.000000000
 11
-179.000000000
 21
-159.192245483
 31
0.000000000
  0
LINE
  8
PLAIN_
  6
SOLID
 62
     7
 10
-179.000000000
 20
-159.192245483
 30
0.000000000
 11
-179.000000000
 21
-157.192459106
 31
0.000000000
  0
LINE
  8
PLAIN_
  6
SOLID
 62
     7
 10
0.000000000
 20
-158.192352295
 30
0.000000000
 11
-185.000000000
 21
-158.192352295
 31
0.000000000
  0
LINE
  8
PLAIN_
  6
SOLID
 62
     7
 10
-6.000000954
 20
-159.192245483
 30
0.000000000
 11
0.000000000
 21
-158.192352295
 31
0.000000000
  0
LINE
  8
PLAIN_
  6
SOLID
 62
     7
 10
0.000000000
 20
-158.192352295
 30
0.000000000
 11
-6.000000954
 21
-157.192459106
 31
0.000000000
  0
LINE
  8
PLAIN_
  6
SOLID
 62
     7
 10
-6.000000954
 20
-157.192459106
 30
0.000000000
 11
-6.000000954
 21
-159.192245483
 31
0.000000000
  0
TEXT
  8
PLAIN_
  6
SOLID
 62
     7
 10
-113.341560364
 20
-155.192352295
 30
0.000000000
 40
6.000000000
  1
185
 50
0.000000000
 41
0.783230782
  0
ENDBLK
  0
BLOCK
  2
*D19
  8
PLAIN_
 70
    65
 10
0.000000000
 20
0.000000000
 30
0.000000000
  3
*D19
  0
LINE
  8
PLAIN_
  6
SOLID
 62
     7
 10
-221.000000000
 20
16.500000000
 30
0.000000000
 11
-221.000000000
 21
170.785034180
 31
0.000000000
  0
LINE
  8
PLAIN_
  6
SOLID
 62
     7
 10
41.899993896
 20
13.249984741
 30
0.000000000
 11
41.899993896
 21
170.785034180
 31
0.000000000
  0
LINE
  8
PLAIN_
  6
SOLID
 62
     7
 10
-221.000000000
 20
170.285034180
 30
0.000000000
 11
41.899993896
 21
170.285034180
 31
0.000000000
  0
LINE
  8
PLAIN_
  6
SOLID
 62
     7
 10
-215.000000000
 20
171.284927368
 30
0.000000000
 11
-221.000000000
 21
170.285034180
 31
0.000000000
  0
LINE
  8
PLAIN_
  6
SOLID
 62
     7
 10
-221.000000000
 20
170.285034180
 30
0.000000000
 11
-215.000000000
 21
169.285140991
 31
0.000000000
  0
LINE
  8
PLAIN_
  6
SOLID
 62
     7
 10
-215.000000000
 20
169.285140991
 30
0.000000000
 11
-215.000000000
 21
171.284927368
 31
0.000000000
  0
LINE
  8
PLAIN_
  6
SOLID
 62
     7
 10
41.899993896
 20
170.285034180
 30
0.000000000
 11
-221.000000000
 21
170.285034180
 31
0.000000000
  0
LINE
  8
PLAIN_
  6
SOLID
 62
     7
 10
35.899990082
 20
169.285140991
 30
0.000000000
 11
41.899993896
 21
170.285034180
 31
0.000000000
  0
LINE
  8
PLAIN_
  6
SOLID
 62
     7
 10
41.899993896
 20
170.285034180
 30
0.000000000
 11
35.899990082
 21
171.284927368
 31
0.000000000
  0
LINE
  8
PLAIN_
  6
SOLID
 62
     7
 10
35.899990082
 20
171.284927368
 30
0.000000000
 11
35.899990082
 21
169.285140991
 31
0.000000000
  0
TEXT
  8
PLAIN_
  6
SOLID
 62
     7
 10
-105.883705139
 20
173.285034180
 30
0.000000000
 40
6.000000000
  1
263
 50
0.000000000
 41
0.783230782
  0
ENDBLK
  0
BLOCK
  2
*D20
  8
PLAIN_
 70
    65
 10
0.000000000
 20
0.000000000
 30
0.000000000
  3
*D20
  0
LINE
  8
PLAIN_
  6
SOLID
 62
     7
 10
-221.000000000
 20
16.500000000
 30
0.000000000
 11
-221.000000000
 21
154.094024658
 31
0.000000000
  0
LINE
  8
PLAIN_
  6
SOLID
 62
     7
 10
0.000000000
 20
105.500305176
 30
0.000000000
 11
0.000000000
 21
154.094024658
 31
0.000000000
  0
LINE
  8
PLAIN_
  6
SOLID
 62
     7
 10
-221.000000000
 20
153.594024658
 30
0.000000000
 11
0.000000000
 21
153.594024658
 31
0.000000000
  0
LINE
  8
PLAIN_
  6
SOLID
 62
     7
 10
-215.000000000
 20
154.593917847
 30
0.000000000
 11
-221.000000000
 21
153.594024658
 31
0.000000000
  0
LINE
  8
PLAIN_
  6
SOLID
 62
     7
 10
-221.000000000
 20
153.594024658
 30
0.000000000
 11
-215.000000000
 21
152.594131470
 31
0.000000000
  0
LINE
  8
PLAIN_
  6
SOLID
 62
     7
 10
-215.000000000
 20
152.594131470
 30
0.000000000
 11
-215.000000000
 21
154.593917847
 31
0.000000000
  0
LINE
  8
PLAIN_
  6
SOLID
 62
     7
 10
0.000000000
 20
153.594024658
 30
0.000000000
 11
-221.000000000
 21
153.594024658
 31
0.000000000
  0
LINE
  8
PLAIN_
  6
SOLID
 62
     7
 10
-5.999999523
 20
152.594131470
 30
0.000000000
 11
0.000000000
 21
153.594024658
 31
0.000000000
  0
LINE
  8
PLAIN_
  6
SOLID
 62
     7
 10
0.000000000
 20
153.594024658
 30
0.000000000
 11
-5.999999523
 21
154.593917847
 31
0.000000000
  0
LINE
  8
PLAIN_
  6
SOLID
 62
     7
 10
-5.999999523
 20
154.593917847
 30
0.000000000
 11
-5.999999523
 21
152.594131470
 31
0.000000000
  0
TEXT
  8
PLAIN_
  6
SOLID
 62
     7
 10
-121.824714661
 20
156.594024658
 30
0.000000000
 40
6.000000000
  1
221
 50
0.000000000
 41
0.699897448
  0
ENDBLK
  0
BLOCK
  2
*D21
  8
PLAIN_
 70
    65
 10
0.000000000
 20
0.000000000
 30
0.000000000
  3
*D21
  0
LINE
  8
PLAIN_
  6
SOLID
 62
     7
 10
-221.000000000
 20
16.500000000
 30
0.000000000
 11
-221.000000000
 21
135.253082275
 31
0.000000000
  0
LINE
  8
PLAIN_
  6
SOLID
 62
     7
 10
-144.000000000
 20
65.500000000
 30
0.000000000
 11
-144.000000000
 21
135.253082275
 31
0.000000000
  0
LINE
  8
PLAIN_
  6
SOLID
 62
     7
 10
-221.000000000
 20
134.753082275
 30
0.000000000
 11
-144.000000000
 21
134.753082275
 31
0.000000000
  0
LINE
  8
PLAIN_
  6
SOLID
 62
     7
 10
-215.000000000
 20
135.752975464
 30
0.000000000
 11
-221.000000000
 21
134.753082275
 31
0.000000000
  0
LINE
  8
PLAIN_
  6
SOLID
 62
     7
 10
-221.000000000
 20
134.753082275
 30
0.000000000
 11
-215.000000000
 21
133.753189087
 31
0.000000000
  0
LINE
  8
PLAIN_
  6
SOLID
 62
     7
 10
-215.000000000
 20
133.753189087
 30
0.000000000
 11
-215.000000000
 21
135.752975464
 31
0.000000000
  0
LINE
  8
PLAIN_
  6
SOLID
 62
     7
 10
-144.000000000
 20
134.753082275
 30
0.000000000
 11
-221.000000000
 21
134.753082275
 31
0.000000000
  0
LINE
  8
PLAIN_
  6
SOLID
 62
     7
 10
-150.000000000
 20
133.753189087
 30
0.000000000
 11
-144.000000000
 21
134.753082275
 31
0.000000000
  0
LINE
  8
PLAIN_
  6
SOLID
 62
     7
 10
-144.000000000
 20
134.753082275
 30
0.000000000
 11
-150.000000000
 21
135.752975464
 31
0.000000000
  0
LINE
  8
PLAIN_
  6
SOLID
 62
     7
 10
-150.000000000
 20
135.752975464
 30
0.000000000
 11
-150.000000000
 21
133.753189087
 31
0.000000000
  0
TEXT
  8
PLAIN_
  6
SOLID
 62
     7
 10
-190.330780029
 20
137.753082275
 30
0.000000000
 40
6.000000000
  1
77
 50
0.000000000
 41
0.733230750
  0
ENDBLK
  0
BLOCK
  2
*D22
  8
PLAIN_
 70
    65
 10
0.000000000
 20
0.000000000
 30
0.000000000
  3
*D22
  0
LINE
  8
PLAIN_
  6
SOLID
 62
     7
 10
-144.000000000
 20
65.500000000
 30
0.000000000
 11
-144.000000000
 21
135.253082275
 31
0.000000000
  0
LINE
  8
PLAIN_
  6
SOLID
 62
     7
 10
0.000000000
 20
105.500305176
 30
0.000000000
 11
0.000000000
 21
135.253082275
 31
0.000000000
  0
LINE
  8
PLAIN_
  6
SOLID
 62
     7
 10
-144.000000000
 20
134.753082275
 30
0.000000000
 11
0.000000000
 21
134.753082275
 31
0.000000000
  0
LINE
  8
PLAIN_
  6
SOLID
 62
     7
 10
-138.000000000
 20
135.752975464
 30
0.000000000
 11
-144.000000000
 21
134.753082275
 31
0.000000000
  0
LINE
  8
PLAIN_
  6
SOLID
 62
     7
 10
-144.000000000
 20
134.753082275
 30
0.000000000
 11
-138.000000000
 21
133.753189087
 31
0.000000000
  0
LINE
  8
PLAIN_
  6
SOLID
 62
     7
 10
-138.000000000
 20
133.753189087
 30
0.000000000
 11
-138.000000000
 21
135.752975464
 31
0.000000000
  0
LINE
  8
PLAIN_
  6
SOLID
 62
     7
 10
0.000000000
 20
134.753082275
 30
0.000000000
 11
-144.000000000
 21
134.753082275
 31
0.000000000
  0
LINE
  8
PLAIN_
  6
SOLID
 62
     7
 10
-6.000002861
 20
133.753189087
 30
0.000000000
 11
0.000000000
 21
134.753082275
 31
0.000000000
  0
LINE
  8
PLAIN_
  6
SOLID
 62
     7
 10
0.000000000
 20
134.753082275
 30
0.000000000
 11
-6.000002861
 21
135.752975464
 31
0.000000000
  0
LINE
  8
PLAIN_
  6
SOLID
 62
     7
 10
-6.000002861
 20
135.752975464
 30
0.000000000
 11
-6.000002861
 21
133.753189087
 31
0.000000000
  0
TEXT
  8
PLAIN_
  6
SOLID
 62
     7
 10
-83.426673889
 20
137.753082275
 30
0.000000000
 40
6.000000000
  1
144
 50
0.000000000
 41
0.783230782
  0
ENDBLK
  0
BLOCK
  2
*H2
  8
PLAIN_
 70
    65
 10
0.000000000
 20
0.000000000
 30
0.000000000
  3
*H2
  0
LINE
  8
PLAIN_
  6
SOLID
 62
     7
 10
39.778778076
 20
-8.854858398
 30
0.000000000
 11
41.899993896
 21
-6.733642578
 31
0.000000000
  0
LINE
  8
PLAIN_
  6
SOLID
 62
     7
 10
38.395477295
 20
-5.995483398
 30
0.000000000
 11
35.177642822
 21
-9.213317871
 31
0.000000000
  0
LINE
  8
PLAIN_
  6
SOLID
 62
     7
 10
30.539398193
 20
-9.608886719
 30
0.000000000
 11
35.148284912
 21
-5.000000000
 31
0.000000000
  0
LINE
  8
PLAIN_
  6
SOLID
 62
     7
 10
30.905670166
 20
-5.000000000
 30
0.000000000
 11
26.306671143
 21
-9.598999023
 31
0.000000000
  0
LINE
  8
PLAIN_
  6
SOLID
 62
     7
 10
22.285675049
 20
-9.377319336
 30
0.000000000
 11
26.663055420
 21
-5.000000000
 31
0.000000000
  0
LINE
  8
PLAIN_
  6
SOLID
 62
     7
 10
36.663055420
 20
5.000000000
 30
0.000000000
 11
40.522186279
 21
8.859130859
 31
0.000000000
  0
LINE
  8
PLAIN_
  6
SOLID
 62
     7
 10
36.132965088
 20
8.712524414
 30
0.000000000
 11
32.420379639
 21
5.000000000
 31
0.000000000
  0
LINE
  8
PLAIN_
  6
SOLID
 62
     7
 10
22.420379639
 20
-5.000000000
 30
0.000000000
 11
18.670379639
 21
-8.750061035
 31
0.000000000
  0
LINE
  8
PLAIN_
  6
SOLID
 62
     7
 10
15.166351318
 20
-8.011352539
 30
0.000000000
 11
18.177764893
 21
-5.000000000
 31
0.000000000
  0
LINE
  8
PLAIN_
  6
SOLID
 62
     7
 10
28.177703857
 20
5.000000000
 30
0.000000000
 11
31.668792725
 21
8.491027832
 31
0.000000000
  0
LINE
  8
PLAIN_
  6
SOLID
 62
     7
 10
27.436981201
 20
8.501831055
 30
0.000000000
 11
23.935089111
 21
5.000000000
 31
0.000000000
  0
LINE
  8
PLAIN_
  6
SOLID
 62
     7
 10
13.935150146
 20
-5.000000000
 30
0.000000000
 11
10.347991943
 21
-8.587097168
 31
0.000000000
  0
LINE
  8
PLAIN_
  6
SOLID
 62
     7
 10
6.978118896
 20
-7.714355469
 30
0.000000000
 11
9.824005127
 21
-4.868408203
 31
0.000000000
  0
LINE
  8
PLAIN_
  6
SOLID
 62
     7
 10
19.692474365
 20
5.000000000
 30
0.000000000
 11
23.029876709
 21
8.337402344
 31
0.000000000
  0
LINE
  8
PLAIN_
  6
SOLID
 62
     7
 10
18.513763428
 20
8.063964844
 30
0.000000000
 11
15.449798584
 21
5.000000000
 31
0.000000000
  0
LINE
  8
PLAIN_
  6
SOLID
 62
     7
 10
8.271087646
 20
-2.178710938
 30
0.000000000
 11
5.137542725
 21
-5.312255859
 31
0.000000000
  0
LINE
  8
PLAIN_
  6
SOLID
 62
     7
 10
5.026153564
 20
-1.181030273
 30
0.000000000
 11
8.114349365
 21
1.907165527
 31
0.000000000
  0
LINE
  8
PLAIN_
  6
SOLID
 62
     7
 10
11.207183838
 20
5.000000000
 30
0.000000000
 11
14.225677490
 21
8.018432617
 31
0.000000000
  0
LINE
  8
PLAIN_
  6
SOLID
 62
     7
 10
10.268707275
 20
8.304138184
 30
0.000000000
 11
6.543426514
 21
4.578857422
 31
0.000000000
  0
ENDBLK
  0
BLOCK
  2
*D23
  8
PLAIN_
 70
    65
 10
0.000000000
 20
0.000000000
 30
0.000000000
  3
*D23
  0
LINE
  8
PLAIN_
  6
SOLID
 62
     7
 10
130.640441895
 20
-28.969028473
 30
0.000000000
 11
166.460052490
 21
-17.330533981
 31
0.000000000
  0
LINE
  8
PLAIN_
  6
SOLID
 62
     7
 10
134.966674805
 20
-42.283817291
 30
0.000000000
 11
170.786285400
 21
-30.645322800
 31
0.000000000
  0
LINE
  8
PLAIN_
  6
SOLID
 62
     7
 10
165.509002686
 20
-17.639551163
 30
0.000000000
 11
154.049133301
 21
17.630296707
 31
0.000000000
  0
LINE
  8
PLAIN_
  6
SOLID
 62
     7
 10
154.049133301
 20
17.630296707
 30
0.000000000
 11
172.616394043
 21
-39.513847351
 31
0.000000000
  0
LINE
  8
PLAIN_
  6
SOLID
 62
     7
 10
162.703948975
 20
-12.242197037
 30
0.000000000
 11
165.509002686
 21
-17.639551163
 31
0.000000000
  0
LINE
  8
PLAIN_
  6
SOLID
 62
     7
 10
165.509002686
 20
-17.639551163
 30
0.000000000
 11
164.605865479
 21
-11.624227524
 31
0.000000000
  0
LINE
  8
PLAIN_
  6
SOLID
 62
     7
 10
164.605865479
 20
-11.624227524
 30
0.000000000
 11
162.703948975
 21
-12.242197037
 31
0.000000000
  0
LINE
  8
PLAIN_
  6
SOLID
 62
     7
 10
169.835235596
 20
-30.954339981
 30
0.000000000
 11
172.616394043
 21
-39.513847351
 31
0.000000000
  0
LINE
  8
PLAIN_
  6
SOLID
 62
     7
 10
172.616394043
 20
-39.513847351
 30
0.000000000
 11
154.049133301
 21
17.630296707
 31
0.000000000
  0
LINE
  8
PLAIN_
  6
SOLID
 62
     7
 10
172.640304565
 20
-36.351692200
 30
0.000000000
 11
169.835235596
 21
-30.954339981
 31
0.000000000
  0
LINE
  8
PLAIN_
  6
SOLID
 62
     7
 10
169.835235596
 20
-30.954339981
 30
0.000000000
 11
170.738388062
 21
-36.969665527
 31
0.000000000
  0
LINE
  8
PLAIN_
  6
SOLID
 62
     7
 10
170.738388062
 20
-36.969665527
 30
0.000000000
 11
172.640304565
 21
-36.351692200
 31
0.000000000
  0
TEXT
  8
PLAIN_
  6
SOLID
 62
     7
 10
157.721191406
 20
16.037048340
 30
0.000000000
 40
6.000000000
  1
14
 50
-72.000002004
 41
0.733230750
  0
ENDBLK
  0
ENDSEC
  0
SECTION
  2
ENTITIES
  0
LINE
  8
PLAIN_
  6
SOLID
 62
     7
 10
-205.714263916
 20
33.069252014
 30
0.000000000
 11
-205.714263916
 21
51.473411560
 31
0.000000000
  0
LINE
  8
PLAIN_
  6
SOLID
 62
     7
 10
-216.000030518
 20
-61.500000000
 30
0.000000000
 11
-216.000030518
 21
-43.500000000
 31
0.000000000
  0
ARC
  8
PLAIN_
  6
SOLID
 62
     7
 10
-216.000030518
 20
-60.500000000
 30
0.000000000
 40
1.000000000
 50
180.000000000
 51
269.999982014
  0
LINE
  8
PLAIN_
  6
L_DASH
 62
     7
 10
-210.714263916
 20
-10.498397827
 30
0.000000000
 11
-207.408966050
 21
-16.223388478
 31
0.000000000
  0
ARC
  8
PLAIN_
  6
SOLID
 62
     7
 10
-216.714263916
 20
50.473411560
 30
0.000000000
 40
1.000000000
 50
90.000017986
 51
180.000000000
  0
LINE
  8
PLAIN_
  6
SOLID
 62
     7
 10
-217.714263916
 20
34.473403931
 30
0.000000000
 11
-217.714263916
 21
50.473411560
 31
0.000000000
  0
LINE
  8
PLAIN_
  6
SOLID
 62
     7
 10
-205.714263916
 20
33.473403931
 30
0.000000000
 11
-216.714263916
 21
33.473403931
 31
0.000000000
  0
ARC
  8
PLAIN_
  6
SOLID
 62
     7
 10
-216.714263916
 20
34.473403931
 30
0.000000000
 40
1.000000000
 50
180.000000000
 51
269.999982014
  0
ARC
  8
PLAIN_
  6
SOLID
 62
     7
 10
-204.714263916
 20
33.069252014
 30
0.000000000
 40
1.000000000
 50
180.000000000
 51
267.999269342
  0
LINE
  8
PLAIN_
  6
SOLID
 62
     7
 10
-205.714263916
 20
51.473411560
 30
0.000000000
 11
-216.714263916
 21
51.473411560
 31
0.000000000
  0
LINE
  8
PLAIN_
  6
SOLID
 62
     7
 10
-217.000030518
 20
-60.500000000
 30
0.000000000
 11
-217.000030518
 21
-44.500000000
 31
0.000000000
  0
ARC
  8
PLAIN_
  6
SOLID
 62
     7
 10
-216.000030518
 20
-44.500000000
 30
0.000000000
 40
1.000000000
 50
90.000017986
 51
180.000000000
  0
LINE
  8
PLAIN_
  6
L_DASH
 62
     7
 10
-210.714263916
 20
36.748413086
 30
0.000000000
 11
-207.408966050
 21
42.473403737
 31
0.000000000
  0
LINE
  8
PLAIN_
  6
SOLID
 62
     7
 10
-216.714263916
 20
33.473403931
 30
0.000000000
 11
-216.714263916
 21
51.473411560
 31
0.000000000
  0
LINE
  8
PLAIN_
  6
L_DASH
 62
     7
 10
-210.714263916
 20
39.610900879
 30
0.000000000
 11
-217.714263916
 21
39.610900879
 31
0.000000000
  0
LINE
  8
PLAIN_
  6
L_DASH
 62
     7
 10
-210.714263916
 20
36.748413086
 30
0.000000000
 11
-217.714263916
 21
36.748413086
 31
0.000000000
  0
LINE
  8
PLAIN_
  6
L_DASH
 62
     7
 10
-210.714263916
 20
36.748413086
 30
0.000000000
 11
-210.714263916
 21
48.198402405
 31
0.000000000
  0
LINE
  8
PLAIN_
  6
L_DASH
 62
     7
 10
-210.714263916
 20
48.198402405
 30
0.000000000
 11
-217.714263916
 21
48.198402405
 31
0.000000000
  0
LINE
  8
PLAIN_
  6
L_DASH
 62
     7
 10
-210.714263916
 20
45.335899353
 30
0.000000000
 11
-217.714263916
 21
45.335899353
 31
0.000000000
  0
LINE
  8
PLAIN_
  6
L_DASH
 62
     7
 10
-210.714263916
 20
48.198402405
 30
0.000000000
 11
-207.408966103
 21
42.473404021
 31
0.000000000
  0
LINE
  8
PLAIN_
  6
SOLID
 62
     7
 10
-205.714263916
 20
-7.223388672
 30
0.000000000
 11
-216.714263916
 21
-7.223388672
 31
0.000000000
  0
LINE
  8
PLAIN_
  6
L_DASH
 62
     7
 10
-210.714263916
 20
-21.948379517
 30
0.000000000
 11
-207.408966050
 21
-16.223388866
 31
0.000000000
  0
ARC
  8
PLAIN_
  6
SOLID
 62
     7
 10
-210.816680908
 20
22.000000000
 30
0.000000000
 40
3.000000000
 50
269.999982014
 51
301.002692185
  0
LINE
  8
PLAIN_
  6
SOLID
 62
     7
 10
-201.000030518
 20
26.956481934
 30
0.000000000
 11
-201.000030518
 21
31.938941956
 31
0.000000000
  0
ARC
  8
PLAIN_
  6
SOLID
 62
     7
 10
-204.714263916
 20
51.877555847
 30
0.000000000
 40
1.000000000
 50
92.000730658
 51
180.000000000
  0
LINE
  8
PLAIN_
  6
SOLID
 62
     7
 10
-210.816680908
 20
19.000000000
 30
0.000000000
 11
-218.000030518
 21
19.000000000
 31
0.000000000
  0
LINE
  8
PLAIN_
  6
SOLID
 62
     7
 10
-144.000000000
 20
64.700004578
 30
0.000000000
 11
-144.289886486
 21
64.989891064
 31
0.000000000
  0
LINE
  8
PLAIN_
  6
SOLID
 62
     7
 10
-205.714263916
 20
32.956710815
 30
0.000000000
 11
-205.714263916
 21
51.877555847
 31
0.000000000
  0
LINE
  8
PLAIN_
  6
SOLID
 62
     7
 10
-144.000000000
 20
-64.500000000
 30
0.000000000
 11
-144.000000000
 21
65.000000000
 31
0.000000000
  0
LINE
  8
PLAIN_
  6
SOLID
 62
     7
 10
-205.714263916
 20
-25.223388672
 30
0.000000000
 11
-216.714263916
 21
-25.223388672
 31
0.000000000
  0
LINE
  8
PLAIN_
  6
SOLID
 62
     7
 10
-216.714263916
 20
-25.223388672
 30
0.000000000
 11
-216.714263916
 21
-7.223388672
 31
0.000000000
  0
LINE
  8
PLAIN_
  6
L_DASH
 62
     7
 10
-210.714263916
 20
-21.948379517
 30
0.000000000
 11
-217.714263916
 21
-21.948379517
 31
0.000000000
  0
LINE
  8
PLAIN_
  6
SOLID
 62
     7
 10
-217.714263916
 20
-24.223388672
 30
0.000000000
 11
-217.714263916
 21
-8.223388672
 31
0.000000000
  0
ARC
  8
PLAIN_
  6
SOLID
 62
     7
 10
-216.714263916
 20
-8.223388672
 30
0.000000000
 40
1.000000000
 50
90.000017986
 51
180.000000000
  0
ARC
  8
PLAIN_
  6
SOLID
 62
     7
 10
-216.714263916
 20
-24.223388672
 30
0.000000000
 40
1.000000000
 50
180.000000000
 51
269.999982014
  0
LINE
  8
PLAIN_
  6
L_DASH
 62
     7
 10
-210.714263916
 20
-19.085891724
 30
0.000000000
 11
-217.714263916
 21
-19.085891724
 31
0.000000000
  0
LINE
  8
PLAIN_
  6
L_DASH
 62
     7
 10
-210.714263916
 20
-21.948379517
 30
0.000000000
 11
-210.714263916
 21
-10.498397827
 31
0.000000000
  0
LINE
  8
PLAIN_
  6
L_DASH
 62
     7
 10
-210.714263916
 20
-10.498397827
 30
0.000000000
 11
-217.714263916
 21
-10.498397827
 31
0.000000000
  0
LINE
  8
PLAIN_
  6
L_DASH
 62
     7
 10
-210.714263916
 20
-13.360885620
 30
0.000000000
 11
-217.714263916
 21
-13.360885620
 31
0.000000000
  0
LINE
  8
PLAIN_
  6
SOLID
 62
     7
 10
-195.000000000
 20
0.314712524
 30
0.000000000
 11
-195.000000000
 21
25.935287476
 31
0.000000000
  0
ARC
  8
PLAIN_
  6
SOLID
 62
     7
 10
-201.000030518
 20
0.314712524
 30
0.000000000
 40
6.000000000
 50
272.000141441
 51
359.999984518
  0
ARC
  8
PLAIN_
  6
SOLID
 62
     7
 10
-201.000030518
 20
25.935287476
 30
0.000000000
 40
6.000000000
 50
359.999991349
 51
88.000134955
  0
LINE
  8
PLAIN_
  6
CENTER
 62
     7
 10
-167.961212158
 20
-16.223388672
 30
0.000000000
 11
-221.357147217
 21
-16.223388672
 31
0.000000000
  0
LINE
  8
PLAIN_
  6
CENTER
 62
     7
 10
-167.953582764
 20
42.473403931
 30
0.000000000
 11
-221.357147217
 21
42.473403931
 31
0.000000000
  0
LINE
  8
PLAIN_
  6
CENTER
 62
     7
 10
-132.285385132
 20
0.000000000
 30
0.000000000
 11
-226.000000000
 21
0.000000000
 31
0.000000000
  0
TEXT
  8
PLAIN_
  6
SOLID
 62
     7
 10
-190.790542603
 20
2.515472412
 30
0.000000000
 40
8.000000000
  1
D 40
 50
0.000000000
 41
0.861283422
  0
LINE
  8
PLAIN_
  6
SOLID
 62
     7
 10
-185.065124512
 20
-65.625480320
 30
0.000000000
 11
-197.000000000
 21
-65.000000000
 31
0.000000000
  0
LINE
  8
PLAIN_
  6
SOLID
 62
     7
 10
-185.065124512
 20
-40.374519680
 30
0.000000000
 11
-197.000000000
 21
-41.000000000
 31
0.000000000
  0
ARC
  8
PLAIN_
  6
SOLID
 62
     7
 10
-220.999969482
 20
-21.196166992
 30
0.000000000
 40
3.000000000
 50
359.999308330
 51
60.000286716
  0
LINE
  8
PLAIN_
  6
SOLID
 62
     7
 10
-218.000030518
 20
4.000000000
 30
0.000000000
 11
-218.000030518
 21
-21.500000000
 31
0.000000000
  0
ARC
  8
PLAIN_
  6
SOLID
 62
     7
 10
-218.000030518
 20
-16.000000000
 30
0.000000000
 40
3.000000000
 50
180.000000000
 51
240.000254387
  0
ARC
  8
PLAIN_
  6
SOLID
 62
     7
 10
-200.000030518
 20
-21.500000000
 30
0.000000000
 40
18.000000000
 50
180.000000000
 51
218.010600207
  0
ARC
  8
PLAIN_
  6
SOLID
 62
     7
 10
-204.714263916
 20
-25.627532959
 30
0.000000000
 40
1.000000000
 50
180.000000000
 51
267.999269342
  0
ARC
  8
PLAIN_
  6
SOLID
 62
     7
 10
-222.061141968
 20
-38.742603098
 30
0.000000000
 40
10.000000000
 50
360.000000000
 51
38.010610225
  0
ARC
  8
PLAIN_
  6
SOLID
 62
     7
 10
-204.714263916
 20
-6.819244385
 30
0.000000000
 40
1.000000000
 50
92.000730658
 51
180.000000000
  0
LINE
  8
PLAIN_
  6
SOLID
 62
     7
 10
-165.061142055
 20
-68.000000087
 30
0.000000000
 11
-161.561141662
 21
-64.500000000
 31
0.000000000
  0
LINE
  8
PLAIN_
  6
SOLID
 62
     7
 10
-205.714263916
 20
-25.627532959
 30
0.000000000
 11
-205.714263916
 21
-6.819244385
 31
0.000000000
  0
ARC
  8
PLAIN_
  6
SOLID
 62
     7
 10
-204.714263916
 20
-25.627532959
 30
0.000000000
 40
1.000000000
 50
180.000000000
 51
267.999269342
  0
LINE
  8
PLAIN_
  6
SOLID
 62
     7
 10
-144.000000000
 20
-64.500000000
 30
0.000000000
 11
-144.000000000
 21
10.439288932
 31
0.000000000
  0
LINE
  8
PLAIN_
  6
SOLID
 62
     7
 10
-210.061141880
 20
-68.000000087
 30
0.000000000
 11
-212.061141968
 21
-66.000000175
 31
0.000000000
  0
LINE
  8
PLAIN_
  6
SOLID
 62
     7
 10
-212.061141968
 20
-66.000000175
 30
0.000000000
 11
-212.061141968
 21
-38.742564052
 31
0.000000000
  0
ARC
  8
PLAIN_
  6
SOLID
 62
     7
 10
-197.000000000
 20
-53.000000000
 30
0.000000000
 40
12.000000000
 50
90.000000000
 51
270.000000000
  0
LINE
  8
PLAIN_
  6
SOLID
 62
     7
 10
-165.061142055
 20
-68.000000087
 30
0.000000000
 11
-210.061141880
 21
-68.000000087
 31
0.000000000
  0
LINE
  8
PLAIN_
  6
SOLID
 62
     7
 10
-195.000000000
 20
0.314712524
 30
0.000000000
 11
-195.000000000
 21
12.079382847
 31
0.000000000
  0
ARC
  8
PLAIN_
  6
SOLID
 62
     7
 10
-201.000030518
 20
0.314712524
 30
0.000000000
 40
6.000000000
 50
272.000141441
 51
359.999984518
  0
LINE
  8
PLAIN_
  6
SOLID
 62
     7
 10
-204.749176025
 20
-5.819854736
 30
0.000000000
 11
-163.895293786
 21
-4.078918516
 31
0.000000000
  0
LINE
  8
PLAIN_
  6
SOLID
 62
     7
 10
-204.749176025
 20
-26.626922607
 30
0.000000000
 11
-163.895293786
 21
-28.367858828
 31
0.000000000
  0
ARC
  8
PLAIN_
  6
SOLID
 62
     7
 10
-164.000000000
 20
-31.366012573
 30
0.000000000
 40
3.000000000
 50
0.000008651
 51
87.999851729
  0
ARC
  8
PLAIN_
  6
SOLID
 62
     7
 10
-164.000000000
 20
-1.080734253
 30
0.000000000
 40
3.000000000
 50
272.000127780
 51
359.999991349
  0
LINE
  8
PLAIN_
  6
SOLID
 62
     7
 10
-161.000000000
 20
-60.463912964
 30
0.000000000
 11
-161.000000000
 21
-31.366012573
 31
0.000000000
  0
LINE
  8
PLAIN_
  6
SOLID
 62
     7
 10
-144.000000000
 20
-64.500000000
 30
0.000000000
 11
-161.561141662
 21
-64.500000000
 31
0.000000000
  0
LINE
  8
PLAIN_
  6
CENTER
 62
     7
 10
-167.961212158
 20
-16.223388672
 30
0.000000000
 11
-221.357147217
 21
-16.223388672
 31
0.000000000
  0
LINE
  8
PLAIN_
  6
CENTER
 62
     7
 10
-132.285385132
 20
0.000000000
 30
0.000000000
 11
-226.000000000
 21
0.000000000
 31
0.000000000
  0
ARC
  8
PLAIN_
  6
SOLID
 62
     7
 10
-207.000030518
 20
26.956481934
 30
0.000000000
 40
6.000000000
 50
286.957762348
 51
359.999991349
  0
ARC
  8
PLAIN_
  6
SOLID
 62
     7
 10
-200.000030518
 20
4.000000000
 30
0.000000000
 40
18.000000000
 50
106.957762348
 51
180.000010018
  0
ARC
  8
PLAIN_
  6
SOLID
 62
     7
 10
-218.000030518
 20
16.000000000
 30
0.000000000
 40
3.000000000
 50
90.000017986
 51
180.000000000
  0
LINE
  8
PLAIN_
  6
SOLID
 62
     7
 10
-221.000030518
 20
-16.000000000
 30
0.000000000
 11
-221.000030518
 21
16.000000000
 31
0.000000000
  0
ARC
  8
PLAIN_
  6
SOLID
 62
     7
 10
-164.000000000
 20
27.645047156
 30
0.000000000
 40
3.000000000
 50
0.000000000
 51
88.000008413
  0
LINE
  8
PLAIN_
  6
SOLID
 62
     7
 10
-204.749176025
 20
32.069862366
 30
0.000000000
 11
-163.895301950
 21
30.643219652
 31
0.000000000
  0
ARC
  8
PLAIN_
  6
SOLID
 62
     7
 10
-158.000000000
 20
61.509252648
 30
0.000000000
 40
3.000000000
 50
92.000174209
 51
180.000000000
  0
LINE
  8
PLAIN_
  6
SOLID
 62
     7
 10
-158.104707606
 20
64.507424811
 30
0.000000000
 11
-144.289886420
 21
64.989891052
 31
0.000000000
  0
LINE
  8
PLAIN_
  6
SOLID
 62
     7
 10
-161.000000000
 20
-1.080734253
 30
0.000000000
 11
-161.000000000
 21
27.645047156
 31
0.000000000
  0
ARC
  8
PLAIN_
  6
SOLID
 62
     7
 10
-164.000000000
 20
57.301766949
 30
0.000000000
 40
3.000000000
 50
272.000000333
 51
0.000000000
  0
LINE
  8
PLAIN_
  6
SOLID
 62
     7
 10
-161.000000000
 20
57.301766949
 30
0.000000000
 11
-161.000000000
 21
61.509252648
 31
0.000000000
  0
LINE
  8
PLAIN_
  6
SOLID
 62
     7
 10
-204.749176025
 20
52.876945496
 30
0.000000000
 11
-163.895301492
 21
54.303594469
 31
0.000000000
  0
LINE
  8
PLAIN_
  6
CENTER
 62
     7
 10
-211.430138491
 20
-52.500000000
 30
0.000000000
 11
-220.642608643
 21
-52.500000000
 31
0.000000000
  0
LINE
  8
PLAIN_
  6
CENTER
 62
     7
 10
-191.230867643
 20
-53.000000000
 30
0.000000000
 11
-200.918919179
 21
-53.000000000
 31
0.000000000
  0
LINE
  8
PLAIN_
  6
CENTER
 62
     7
 10
-197.000000000
 20
-59.913506086
 30
0.000000000
 11
-197.000000000
 21
-47.312707030
 31
0.000000000
  0
LINE
  8
PLAIN_
  6
L_DASH
 62
     7
 10
-212.061141968
 20
-55.362503052
 30
0.000000000
 11
-217.000030518
 21
-55.362503052
 31
0.000000000
  0
LINE
  8
PLAIN_
  6
SOLID
 62
     7
 10
-212.061141968
 20
-61.500000000
 30
0.000000000
 11
-216.000030518
 21
-61.500000000
 31
0.000000000
  0
LINE
  8
PLAIN_
  6
L_DASH
 62
     7
 10
-212.061141968
 20
-58.224990845
 30
0.000000000
 11
-217.000030518
 21
-58.224990845
 31
0.000000000
  0
LINE
  8
PLAIN_
  6
L_DASH
 62
     7
 10
-212.061141968
 20
-46.775009155
 30
0.000000000
 11
-217.000030518
 21
-46.775009155
 31
0.000000000
  0
LINE
  8
PLAIN_
  6
L_DASH
 62
     7
 10
-212.061141968
 20
-49.637496948
 30
0.000000000
 11
-217.000030518
 21
-49.637496948
 31
0.000000000
  0
LINE
  8
PLAIN_
  6
SOLID
 62
     7
 10
-212.061141968
 20
-43.500000000
 30
0.000000000
 11
-216.000030518
 21
-43.500000000
 31
0.000000000
  0
INSERT
  2
*D1
  8
PLAIN_
 41
1.000000000
 50
0.000000000
 10
0.000000000
 20
0.000000000
 30
0.000000000
  0
TEXT
  8
PLAIN_
  6
SOLID
 62
     7
 10
-71.850425720
 20
4.091477394
 30
0.000000000
 40
10.000000000
  1
GM1
 50
0.000000000
 41
0.717406782
  0
LINE
  8
PLAIN_
  6
CENTER
 62
     7
 10
214.450162101
 20
-72.345452903
 30
0.000000000
 11
214.450162101
 21
-47.365215127
 31
0.000000000
  0
LINE
  8
PLAIN_
  6
CENTER
 62
     7
 10
270.450162101
 20
-69.521599937
 30
0.000000000
 11
270.450162101
 21
-43.020825948
 31
0.000000000
  0
INSERT
  2
*D2
  8
PLAIN_
 41
1.000000000
 50
0.000000000
 10
0.000000000
 20
0.000000000
 30
0.000000000
  0
ARC
  8
PLAIN_
  6
SOLID
 62
     7
 10
-17.999996185
 20
-86.500000000
 30
0.000000000
 40
3.000000000
 50
0.000000000
 51
90.000000000
  0
LINE
  8
PLAIN_
  6
SOLID
 62
     7
 10
-33.709143402
 20
-84.839745962
 30
0.000000000
 11
-56.042928532
 21
-97.734162819
 31
0.000000000
  0
LINE
  8
PLAIN_
  6
SOLID
 62
     7
 10
-17.999996185
 20
-83.500000000
 30
0.000000000
 11
-28.709143402
 21
-83.500000000
 31
0.000000000
  0
ARC
  8
PLAIN_
  6
SOLID
 62
     7
 10
-9.000000000
 20
110.191645450
 30
0.000000000
 40
6.000000000
 50
0.000000000
 51
83.000000003
  0
LINE
  8
PLAIN_
  6
SOLID
 62
     7
 10
-3.000000000
 20
110.191645450
 30
0.000000000
 11
-3.000000000
 21
108.511231142
 31
0.000000000
  0
ARC
  8
PLAIN_
  6
SOLID
 62
     7
 10
-28.709143402
 20
-93.500000000
 30
0.000000000
 40
10.000000000
 50
90.000000000
 51
120.000000000
  0
LINE
  8
PLAIN_
  6
SOLID
 62
     7
 10
-30.145500355
 20
118.833045378
 30
0.000000000
 11
-8.268783940
 21
116.146922360
 31
0.000000000
  0
LINE
  8
PLAIN_
  6
CENTER
 62
     7
 10
-210.132781982
 20
0.000000000
 30
0.000000000
 11
-130.737930298
 21
0.000000000
 31
0.000000000
  0
LINE
  8
PLAIN_
  6
SOLID
 62
     7
 10
-14.999996185
 20
-51.773593795
 30
0.000000000
 11
-14.999996185
 21
-113.685211182
 31
0.000000000
  0
LINE
  8
PLAIN_
  6
SOLID
 62
     7
 10
-113.000000000
 20
117.765594482
 30
0.000000000
 11
-113.000000000
 21
-116.502865713
 31
0.000000000
  0
ARC
  8
PLAIN_
  6
SOLID
 62
     7
 10
-73.499996185
 20
-105.000000000
 30
0.000000000
 40
13.000000000
 50
270.000039696
 51
336.418192556
  0
LINE
  8
PLAIN_
  6
SOLID
 62
     7
 10
-75.999996185
 20
-118.000000000
 30
0.000000000
 11
-73.499996185
 21
-118.000000000
 31
0.000000000
  0
LINE
  8
PLAIN_
  6
SOLID
 62
     7
 10
0.000003815
 20
0.000000000
 30
0.000000000
 11
0.000003815
 21
105.000320435
 31
0.000000000
  0
LINE
  8
PLAIN_
  6
CENTER
 62
     7
 10
-210.132781982
 20
0.000000000
 30
0.000000000
 11
58.094139099
 21
0.000000000
 31
0.000000000
  0
LINE
  8
PLAIN_
  6
SOLID
 62
     7
 10
-30.145500355
 20
118.833045378
 30
0.000000000
 11
-76.052355639
 21
119.634354014
 31
0.000000000
  0
LINE
  8
PLAIN_
  6
SOLID
 62
     7
 10
-97.000000000
 20
120.500003815
 30
0.000000000
 11
-97.000000000
 21
-119.999999589
 31
0.000000000
  0
LINE
  8
PLAIN_
  6
SOLID
 62
     7
 10
-97.500000000
 20
121.000001272
 30
0.000000000
 11
-97.000000000
 21
120.500003815
 31
0.000000000
  0
LINE
  8
PLAIN_
  6
SOLID
 62
     7
 10
-98.000000000
 20
-120.999999589
 30
0.000000000
 11
-97.000000000
 21
-119.999999589
 31
0.000000000
  0
ARC
  8
PLAIN_
  6
SOLID
 62
     7
 10
-135.000000000
 20
-70.499999589
 30
0.000000000
 40
3.000000000
 50
0.000000000
 51
89.999968949
  0
LINE
  8
PLAIN_
  6
SOLID
 62
     7
 10
-132.000000000
 20
-70.499999589
 30
0.000000000
 11
-132.000000000
 21
-85.802115064
 31
0.000000000
  0
INSERT
  2
*L1
  8
PLAIN_
 41
1.000000000
 50
0.000000000
 10
0.000000000
 20
0.000000000
 30
0.000000000
  0
ARC
  8
PLAIN_
  6
SOLID
 62
     7
 10
180.732968569
 20
84.946755532
 30
0.000000000
 40
22.000000000
 50
184.484524925
 51
196.143093938
  0
CIRCLE
  8
PLAIN_
  6
SOLID
 62
     7
 10
275.007209782
 20
94.551817154
 30
0.000000000
 40
11.000000000
  0
ARC
  8
PLAIN_
  6
SOLID
 62
     7
 10
329.657269019
 20
-59.373797792
 30
0.000000000
 40
6.000000000
 50
325.751765173
 51
31.999998917
  0
LINE
  8
PLAIN_
  6
SOLID
 62
     7
 10
334.745558718
 20
-56.194280559
 30
0.000000000
 11
326.198244983
 21
-42.515719259
 31
0.000000000
  0
ARC
  8
PLAIN_
  6
SOLID
 62
     7
 10
342.311317697
 20
-32.446764237
 30
0.000000000
 40
19.000000000
 50
112.000000642
 51
212.000994986
  0
LINE
  8
PLAIN_
  6
SOLID
 62
     7
 10
350.148770730
 20
-8.788068529
 30
0.000000000
 11
335.193792058
 21
-14.830272119
 31
0.000000000
  0
ARC
  8
PLAIN_
  6
SOLID
 62
     7
 10
242.450406027
 20
0.000000411
 30
0.000000000
 40
118.000000000
 50
135.145406768
 51
187.358884552
  0
ARC
  8
PLAIN_
  6
SOLID
 62
     7
 10
180.732967501
 20
84.946754756
 30
0.000000000
 40
22.000000000
 50
55.856803400
 51
67.515372413
  0
ARC
  8
PLAIN_
  6
SOLID
 62
     7
 10
347.901131200
 20
-3.224964405
 30
0.000000000
 40
6.000000000
 50
292.000000541
 51
358.248234286
  0
ARC
  8
PLAIN_
  6
SOLID
 62
     7
 10
325.866648855
 20
64.591139958
 30
0.000000000
 40
6.000000000
 50
37.751764909
 51
103.999998654
  0
LINE
  8
PLAIN_
  6
SOLID
 62
     7
 10
324.415115964
 20
70.412916275
 30
0.000000000
 11
308.764765906
 21
66.510845752
 31
0.000000000
  0
ARC
  8
PLAIN_
  6
SOLID
 62
     7
 10
304.167834311
 20
84.946766487
 30
0.000000000
 40
19.000000000
 50
184.000000378
 51
284.000994723
  0
LINE
  8
PLAIN_
  6
SOLID
 62
     7
 10
284.800114042
 20
89.541924325
 30
0.000000000
 11
285.214117917
 21
83.621393078
 31
0.000000000
  0
ARC
  8
PLAIN_
  6
SOLID
 62
     7
 10
153.836994623
 20
77.161732379
 30
0.000000000
 40
6.000000000
 50
318.951509895
 51
16.142908691
  0
LINE
  8
PLAIN_
  6
SOLID
 62
     7
 10
-144.000000000
 20
61.500000000
 30
0.000000000
 11
-144.000000000
 21
-61.500000000
 31
0.000000000
  0
LINE
  8
PLAIN_
  6
SOLID
 62
     7
 10
134.015463867
 20
-42.592346780
 30
0.000000000
 11
145.227959193
 21
-38.949205356
 31
0.000000000
  0
CIRCLE
  8
PLAIN_
  6
SOLID
 62
     7
 10
342.311214447
 20
-32.447008133
 30
0.000000000
 40
12.000000000
  0
ARC
  8
PLAIN_
  6
SOLID
 62
     7
 10
196.448301625
 20
108.120626743
 30
0.000000000
 40
6.000000000
 50
235.856743272
 51
293.048433170
  0
ARC
  8
PLAIN_
  6
SOLID
 62
     7
 10
206.797616004
 20
99.293317130
 30
0.000000000
 40
6.000000000
 50
109.751767601
 51
176.000001346
  0
LINE
  8
PLAIN_
  6
SOLID
 62
     7
 10
200.812234035
 20
99.711856810
 30
0.000000000
 11
199.687099498
 21
83.621683301
 31
0.000000000
  0
ARC
  8
PLAIN_
  6
SOLID
 62
     7
 10
125.406150031
 20
-10.339493589
 30
0.000000000
 40
6.000000000
 50
307.856743814
 51
5.048490736
  0
ARC
  8
PLAIN_
  6
SOLID
 62
     7
 10
180.732968569
 20
84.946755532
 30
0.000000000
 40
19.000000000
 50
255.999999296
 51
356.000993640
  0
ARC
  8
PLAIN_
  6
SOLID
 62
     7
 10
142.589506273
 20
-32.446782739
 30
0.000000000
 40
22.000000000
 50
127.856802861
 51
132.047567302
  0
ARC
  8
PLAIN_
  6
SOLID
 62
     7
 10
268.785636416
 20
-114.510810566
 30
0.000000000
 40
6.000000000
 50
102.951642188
 51
160.142907345
  0
ARC
  8
PLAIN_
  6
SOLID
 62
     7
 10
242.450414839
 20
-104.999969148
 30
0.000000000
 40
22.000000000
 50
328.484523579
 51
340.143092592
  0
INSERT
  2
*D3
  8
PLAIN_
 41
1.000000000
 50
0.000000000
 10
0.000000000
 20
0.000000000
 30
0.000000000
  0
LINE
  8
PLAIN_
  6
SOLID
 62
     7
 10
217.571782471
 20
-105.089809060
 30
0.000000000
 11
227.895061186
 21
-92.787004564
 31
0.000000000
  0
ARC
  8
PLAIN_
  6
SOLID
 62
     7
 10
216.115183364
 20
-114.510783159
 30
0.000000000
 40
6.000000000
 50
19.856741926
 51
77.048232025
  0
ARC
  8
PLAIN_
  6
SOLID
 62
     7
 10
242.450418284
 20
-104.999969148
 30
0.000000000
 40
22.000000000
 50
199.856803214
 51
211.515372227
  0
LINE
  8
PLAIN_
  6
CENTER
 62
     7
 10
242.450410623
 20
0.000004440
 30
0.000000000
 11
312.210875087
 21
-96.017039802
 31
0.000000000
  0
LINE
  8
PLAIN_
  6
SOLID
 62
     7
 10
-104.999938143
 20
-120.999999589
 30
0.000000000
 11
-98.000000000
 21
-120.999999589
 31
0.000000000
  0
LINE
  8
PLAIN_
  6
SOLID
 62
     7
 10
-132.000000000
 20
111.412511748
 30
0.000000000
 11
-132.000000000
 21
111.237190247
 31
0.000000000
  0
ARC
  8
PLAIN_
  6
SOLID
 62
     7
 10
359.494695382
 20
-10.339490970
 30
0.000000000
 40
6.000000000
 50
174.951570241
 51
232.142910037
  0
CIRCLE
  8
PLAIN_
  6
SOLID
 62
     7
 10
242.450408979
 20
0.000000540
 30
0.000000000
 40
121.000000000
  0
ARC
  8
PLAIN_
  6
SOLID
 62
     7
 10
242.450621859
 20
0.000154431
 30
0.000000000
 40
111.500000000
 50
90.000001239
 51
113.048432740
  0
ARC
  8
PLAIN_
  6
SOLID
 62
     7
 10
242.450408979
 20
0.000000540
 30
0.000000000
 40
67.500000000
 50
332.251028444
 51
207.748971398
  0
LINE
  8
PLAIN_
  6
SOLID
 62
     7
 10
160.486101450
 20
70.413206498
 30
0.000000000
 11
176.136451508
 21
66.511135974
 31
0.000000000
  0
TEXT
  8
PLAIN_
  6
SOLID
 62
     7
 10
77.394966125
 20
176.314819336
 30
0.000000000
 40
6.000000000
  1
PROF. 28UNI 221
 50
0.000000000
 41
0.846564060
  0
TEXT
  8
PLAIN_
  6
SOLID
 62
     7
 10
77.394966125
 20
167.314819336
 30
0.000000000
 40
6.000000000
  1
B6X28X34 DIN 5463
 50
0.000000000
 41
0.865583682
  0
ARC
  8
PLAIN_
  6
SOLID
 62
     7
 10
242.450406027
 20
0.000000411
 30
0.000000000
 40
118.000000000
 50
116.854599630
 51
135.145406768
  0
LINE
  8
PLAIN_
  6
SOLID
 62
     7
 10
73.679016113
 20
174.294525146
 30
0.000000000
 11
61.712524414
 21
174.294525146
 31
0.000000000
  0
ARC
  8
PLAIN_
  6
SOLID
 62
     7
 10
342.311317697
 20
-32.446764237
 30
0.000000000
 40
22.000000000
 50
40.484526271
 51
52.143095284
  0
LINE
  8
PLAIN_
  6
CENTER
 62
     7
 10
242.450405626
 20
0.000003261
 30
0.000000000
 11
355.325210282
 21
36.675249149
 31
0.000000000
  0
LINE
  8
PLAIN_
  6
SOLID
 62
     7
 10
-118.300000191
 20
-92.000000000
 30
0.000000000
 11
-113.000000000
 21
-92.000000000
 31
0.000000000
  0
ARC
  8
PLAIN_
  6
SOLID
 62
     7
 10
242.450406027
 20
107.499904268
 30
0.000000000
 40
2.000000000
 50
180.000000000
 51
0.000039696
  0
LINE
  8
PLAIN_
  6
CENTER
 62
     7
 10
269.009997396
 20
77.134647753
 30
0.000000000
 11
280.704663257
 21
111.098423470
 31
0.000000000
  0
CIRCLE
  8
PLAIN_
  6
SOLID
 62
     7
 10
160.535410791
 20
-57.358532216
 30
0.000000000
 40
5.725000381
  0
ARC
  8
PLAIN_
  6
SOLID
 62
     7
 10
275.007209299
 20
94.551813894
 30
0.000000000
 40
6.580000401
 50
-390.361881456
 51
-99.495570896
  0
LINE
  8
PLAIN_
  6
CENTER
 62
     7
 10
242.450405202
 20
-0.000001856
 30
0.000000000
 11
242.450405202
 21
118.683590890
 31
0.000000000
  0
CIRCLE
  8
PLAIN_
  6
SOLID
 62
     7
 10
275.007209299
 20
94.551813894
 30
0.000000000
 40
5.725000381
  0
ARC
  8
PLAIN_
  6
SOLID
 62
     7
 10
159.034568559
 20
64.591430181
 30
0.000000000
 40
6.000000000
 50
76.000001346
 51
142.248235091
  0
LINE
  8
PLAIN_
  6
SOLID
 62
     7
 10
61.712524414
 20
174.294525146
 30
0.000000000
 11
39.899994322
 21
13.855651570
 31
0.000000000
  0
INSERT
  2
*D4
  8
PLAIN_
 41
1.000000000
 50
0.000000000
 10
0.000000000
 20
0.000000000
 30
0.000000000
  0
LINE
  8
PLAIN_
  6
CENTER
 62
     7
 10
359.872499800
 20
-38.153009092
 30
0.000000000
 11
242.450332782
 21
-0.000234253
 31
0.000000000
  0
LINE
  8
PLAIN_
  6
CENTER
 62
     7
 10
364.650162096
 20
0.000000411
 30
0.000000000
 11
119.283325548
 21
0.000000411
 31
0.000000000
  0
LINE
  8
PLAIN_
  6
SOLID
 62
     7
 10
279.979759406
 20
-83.979445996
 30
0.000000000
 11
310.722405467
 21
-61.643606787
 31
0.000000000
  0
LINE
  8
PLAIN_
  6
SOLID
 62
     7
 10
312.119207711
 20
-61.864838546
 30
0.000000000
 11
326.985902968
 21
-82.327089644
 31
0.000000000
  0
LINE
  8
PLAIN_
  6
SOLID
 62
     7
 10
279.758527647
 20
-85.376248240
 30
0.000000000
 11
294.625224053
 21
-105.838500920
 31
0.000000000
  0
LINE
  8
PLAIN_
  6
CENTER
 62
     7
 10
242.450409938
 20
-0.000003840
 30
0.000000000
 11
129.575605680
 21
36.675243272
 31
0.000000000
  0
TEXT
  8
PLAIN_
  6
SOLID
 62
     7
 10
241.575408936
 20
107.603759766
 30
0.000000000
 40
3.000000000
  1
1
 50
0.000000000
 41
0.333230774
  0
TEXT
  8
PLAIN_
  6
SOLID
 62
     7
 10
343.439300537
 20
33.986042023
 30
0.000000000
 40
3.000000000
  1
2
 50
-72.000002004
 41
0.583230774
  0
ARC
  8
PLAIN_
  6
SOLID
 62
     7
 10
311.310190710
 20
-62.452623789
 30
0.000000000
 40
1.000000000
 50
35.999999296
 51
125.999999296
  0
LINE
  8
PLAIN_
  6
SOLID
 62
     7
 10
-78.515861511
 20
121.000000000
 30
0.000000000
 11
-78.515861511
 21
-114.814949036
 31
0.000000000
  0
ARC
  8
PLAIN_
  6
SOLID
 62
     7
 10
280.567544649
 20
-84.788462998
 30
0.000000000
 40
1.000000000
 50
125.999999296
 51
215.999999296
  0
TEXT
  8
PLAIN_
  6
SOLID
 62
     7
 10
177.133071899
 20
-89.388229370
 30
0.000000000
 40
3.000000000
  1
4
 50
-36.000018077
 41
0.583230774
  0
ARC
  8
PLAIN_
  6
SOLID
 62
     7
 10
242.450098951
 20
-0.000225484
 30
0.000000000
 40
111.500000000
 50
138.951509895
 51
161.999997678
  0
TEXT
  8
PLAIN_
  6
SOLID
 62
     7
 10
139.909667969
 20
32.759757996
 30
0.000000000
 40
3.000000000
  1
5
 50
72.000002004
 41
0.583230774
  0
INSERT
  2
*D5
  8
PLAIN_
 41
1.000000000
 50
0.000000000
 10
0.000000000
 20
0.000000000
 30
0.000000000
  0
POLYLINE
  8
PLAIN_
  6
SOLID
 62
     7
 66
     1
 10
0.000000000
 20
0.000000000
 30
0.000000000
  0
VERTEX
  8
PLAIN_
 10
41.899989863
 20
8.702798222
 30
0.000000000
  0
VERTEX
  8
PLAIN_
 10
41.185699463
 20
8.821411273
 30
0.000000000
  0
VERTEX
  8
PLAIN_
 10
40.750407379
 20
8.853698315
 30
0.000000000
  0
VERTEX
  8
PLAIN_
 10
40.312890247
 20
8.859242377
 30
0.000000000
  0
VERTEX
  8
PLAIN_
 10
39.435699463
 20
8.821411273
 30
0.000000000
  0
VERTEX
  8
PLAIN_
 10
38.434982241
 20
8.756702674
 30
0.000000000
  0
VERTEX
  8
PLAIN_
 10
37.435699463
 20
8.714233539
 30
0.000000000
  0
VERTEX
  8
PLAIN_
 10
35.507171631
 20
8.714233539
 30
0.000000000
  0
VERTEX
  8
PLAIN_
 10
32.257171631
 20
8.500000140
 30
0.000000000
  0
VERTEX
  8
PLAIN_
 10
30.864924226
 20
8.479705902
 30
0.000000000
  0
VERTEX
  8
PLAIN_
 10
29.471405029
 20
8.500000140
 30
0.000000000
  0
VERTEX
  8
PLAIN_
 10
27.042877197
 20
8.500000140
 30
0.000000000
  0
VERTEX
  8
PLAIN_
 10
25.488527005
 20
8.461740985
 30
0.000000000
  0
VERTEX
  8
PLAIN_
 10
23.935699463
 20
8.392822406
 30
0.000000000
  0
VERTEX
  8
PLAIN_
 10
18.984035857
 20
8.086169056
 30
0.000000000
  0
VERTEX
  8
PLAIN_
 10
16.828582764
 20
8.000000140
 30
0.000000000
  0
VERTEX
  8
PLAIN_
 10
15.184843847
 20
7.984544835
 30
0.000000000
  0
VERTEX
  8
PLAIN_
 10
14.353641228
 20
8.011096775
 30
0.000000000
  0
VERTEX
  8
PLAIN_
 10
13.507171631
 20
8.071411273
 30
0.000000000
  0
VERTEX
  8
PLAIN_
 10
11.444425521
 20
8.293238711
 30
0.000000000
  0
VERTEX
  8
PLAIN_
 10
10.762754218
 20
8.330451293
 30
0.000000000
  0
VERTEX
  8
PLAIN_
 10
10.096010092
 20
8.317427274
 30
0.000000000
  0
VERTEX
  8
PLAIN_
 10
9.770480434
 20
8.286100605
 30
0.000000000
  0
VERTEX
  8
PLAIN_
 10
9.451376227
 20
8.235043664
 30
0.000000000
  0
VERTEX
  8
PLAIN_
 10
9.139595358
 20
8.161866078
 30
0.000000000
  0
VERTEX
  8
PLAIN_
 10
8.836035712
 20
8.064177472
 30
0.000000000
  0
VERTEX
  8
PLAIN_
 10
8.541595174
 20
7.939587473
 30
0.000000000
  0
VERTEX
  8
PLAIN_
 10
8.257171631
 20
7.785705707
 30
0.000000000
  0
VERTEX
  8
PLAIN_
 10
7.987030541
 20
7.603248656
 30
0.000000000
  0
VERTEX
  8
PLAIN_
 10
7.731023950
 20
7.392844160
 30
0.000000000
  0
VERTEX
  8
PLAIN_
 10
7.492614190
 20
7.157540659
 30
0.000000000
  0
VERTEX
  8
PLAIN_
 10
7.275263593
 20
6.900386596
 30
0.000000000
  0
VERTEX
  8
PLAIN_
 10
7.082434489
 20
6.624430411
 30
0.000000000
  0
VERTEX
  8
PLAIN_
 10
6.917589212
 20
6.332720546
 30
0.000000000
  0
VERTEX
  8
PLAIN_
 10
6.784190093
 20
6.028305441
 30
0.000000000
  0
VERTEX
  8
PLAIN_
 10
6.685699463
 20
5.714233539
 30
0.000000000
  0
VERTEX
  8
PLAIN_
 10
6.608235159
 20
5.287035844
 30
0.000000000
  0
VERTEX
  8
PLAIN_
 10
6.532182464
 20
4.423469225
 30
0.000000000
  0
VERTEX
  8
PLAIN_
 10
6.471405029
 20
4.000000140
 30
0.000000000
  0
VERTEX
  8
PLAIN_
 10
6.395185125
 20
3.695866892
 30
0.000000000
  0
VERTEX
  8
PLAIN_
 10
6.294238592
 20
3.397764502
 30
0.000000000
  0
VERTEX
  8
PLAIN_
 10
6.042299315
 20
2.813011166
 30
0.000000000
  0
VERTEX
  8
PLAIN_
 10
5.763854545
 20
2.232457884
 30
0.000000000
  0
VERTEX
  8
PLAIN_
 10
5.507171631
 20
1.642822406
 30
0.000000000
  0
VERTEX
  8
PLAIN_
 10
5.349218646
 20
1.172290943
 30
0.000000000
  0
VERTEX
  8
PLAIN_
 10
5.228448033
 20
0.691724034
 30
0.000000000
  0
VERTEX
  8
PLAIN_
 10
5.139892003
 20
0.204559094
 30
0.000000000
  0
VERTEX
  8
PLAIN_
 10
5.078582764
 20
-0.285766461
 30
0.000000000
  0
VERTEX
  8
PLAIN_
 10
5.032630930
 20
-0.889666384
 30
0.000000000
  0
VERTEX
  8
PLAIN_
 10
4.923281293
 20
-4.036280510
 30
0.000000000
  0
VERTEX
  8
PLAIN_
 10
4.958026561
 20
-4.687412752
 30
0.000000000
  0
VERTEX
  8
PLAIN_
 10
5.005393631
 20
-5.007048627
 30
0.000000000
  0
VERTEX
  8
PLAIN_
 10
5.078582764
 20
-5.321410993
 30
0.000000000
  0
VERTEX
  8
PLAIN_
 10
5.219858898
 20
-5.726822609
 30
0.000000000
  0
VERTEX
  8
PLAIN_
 10
5.409189074
 20
-6.117796583
 30
0.000000000
  0
VERTEX
  8
PLAIN_
 10
5.641904939
 20
-6.490830135
 30
0.000000000
  0
VERTEX
  8
PLAIN_
 10
5.913338138
 20
-6.842420486
 30
0.000000000
  0
VERTEX
  8
PLAIN_
 10
6.218820317
 20
-7.169064856
 30
0.000000000
  0
VERTEX
  8
PLAIN_
 10
6.553683122
 20
-7.467260467
 30
0.000000000
  0
VERTEX
  8
PLAIN_
 10
6.913258201
 20
-7.733504539
 30
0.000000000
  0
VERTEX
  8
PLAIN_
 10
7.292877197
 20
-7.964294293
 30
0.000000000
  0
VERTEX
  8
PLAIN_
 10
7.752908490
 20
-8.184403933
 30
0.000000000
  0
VERTEX
  8
PLAIN_
 10
8.230121194
 20
-8.354968524
 30
0.000000000
  0
VERTEX
  8
PLAIN_
 10
8.720996820
 20
-8.478882527
 30
0.000000000
  0
VERTEX
  8
PLAIN_
 10
9.222016878
 20
-8.559040403
 30
0.000000000
  0
VERTEX
  8
PLAIN_
 10
9.729662878
 20
-8.598336614
 30
0.000000000
  0
VERTEX
  8
PLAIN_
 10
10.240416330
 20
-8.599665620
 30
0.000000000
  0
VERTEX
  8
PLAIN_
 10
10.750758744
 20
-8.565921881
 30
0.000000000
  0
VERTEX
  8
PLAIN_
 10
11.257171631
 20
-8.499999860
 30
0.000000000
  0
VERTEX
  8
PLAIN_
 10
11.964248949
 20
-8.361781688
 30
0.000000000
  0
VERTEX
  8
PLAIN_
 10
13.352371070
 20
-8.056874429
 30
0.000000000
  0
VERTEX
  8
PLAIN_
 10
14.042877197
 20
-7.964294293
 30
0.000000000
  0
VERTEX
  8
PLAIN_
 10
14.613926462
 20
-7.948484047
 30
0.000000000
  0
VERTEX
  8
PLAIN_
 10
15.187212949
 20
-7.983945532
 30
0.000000000
  0
VERTEX
  8
PLAIN_
 10
15.762309522
 20
-8.061331946
 30
0.000000000
  0
VERTEX
  8
PLAIN_
 10
16.338789044
 20
-8.171296486
 30
0.000000000
  0
VERTEX
  8
PLAIN_
 10
18.649993896
 20
-8.749999860
 30
0.000000000
  0
VERTEX
  8
PLAIN_
 10
19.889318291
 20
-9.021790961
 30
0.000000000
  0
VERTEX
  8
PLAIN_
 10
21.127950613
 20
-9.233721647
 30
0.000000000
  0
VERTEX
  8
PLAIN_
 10
22.368678186
 20
-9.391291439
 30
0.000000000
  0
VERTEX
  8
PLAIN_
 10
23.614288330
 20
-9.499999860
 30
0.000000000
  0
VERTEX
  8
PLAIN_
 10
25.219326595
 20
-9.578363591
 30
0.000000000
  0
VERTEX
  8
PLAIN_
 10
26.828582764
 20
-9.607177594
 30
0.000000000
  0
VERTEX
  8
PLAIN_
 10
32.012143745
 20
-9.606438622
 30
0.000000000
  0
VERTEX
  8
PLAIN_
 10
32.797657442
 20
-9.574575559
 30
0.000000000
  0
VERTEX
  8
PLAIN_
 10
33.578582764
 20
-9.499999860
 30
0.000000000
  0
VERTEX
  8
PLAIN_
 10
36.578582764
 20
-8.964294293
 30
0.000000000
  0
VERTEX
  8
PLAIN_
 10
37.155880964
 20
-8.907565099
 30
0.000000000
  0
VERTEX
  8
PLAIN_
 10
37.735950076
 20
-8.876148536
 30
0.000000000
  0
VERTEX
  8
PLAIN_
 10
38.899993896
 20
-8.857177594
 30
0.000000000
  0
VERTEX
  8
PLAIN_
 10
41.899980861
 20
-8.854924061
 30
0.000000000
  0
SEQEND
  0
LINE
  8
PLAIN_
  6
SOLID
 62
     7
 10
36.650041580
 20
-16.999999860
 30
0.000000000
 11
5.000003815
 21
-16.999999860
 31
0.000000000
  0
LINE
  8
PLAIN_
  6
SOLID
 62
     7
 10
19.899982452
 20
17.000000140
 30
0.000000000
 11
5.000003815
 21
17.000000140
 31
0.000000000
  0
ARC
  8
PLAIN_
  6
SOLID
 62
     7
 10
19.899993896
 20
-48.999999860
 30
0.000000000
 40
35.000000000
 50
89.999944675
 51
113.895470770
  0
LINE
  8
PLAIN_
  6
SOLID
 62
     7
 10
36.755645752
 20
17.000000140
 30
0.000000000
 11
19.899991989
 21
17.000000140
 31
0.000000000
  0
ARC
  8
PLAIN_
  6
SOLID
 62
     7
 10
40.899993896
 20
7.500000140
 30
0.000000000
 40
1.000000000
 50
270.000017986
 51
0.000000000
  0
LINE
  8
PLAIN_
  6
SOLID
 62
     7
 10
36.650036302
 20
-17.000001323
 30
0.000000000
 11
39.899990525
 21
-13.750047100
 31
0.000000000
  0
LINE
  8
PLAIN_
  6
SOLID
 62
     7
 10
36.755645265
 20
17.000000628
 30
0.000000000
 11
39.899994322
 21
13.855651570
 31
0.000000000
  0
LINE
  8
PLAIN_
  6
CENTER
 62
     7
 10
19.899993896
 20
-28.796148637
 30
0.000000000
 11
19.899993896
 21
-11.615623811
 31
0.000000000
  0
LINE
  8
PLAIN_
  6
CENTER
 62
     7
 10
19.899993896
 20
25.596512935
 30
0.000000000
 11
19.899993896
 21
11.615623614
 31
0.000000000
  0
LINE
  8
PLAIN_
  6
SOLID
 62
     7
 10
40.899993896
 20
13.749987743
 30
0.000000000
 11
40.899993896
 21
8.846069476
 31
0.000000000
  0
LINE
  8
PLAIN_
  6
SOLID
 62
     7
 10
39.899993896
 20
13.749987743
 30
0.000000000
 11
39.899993896
 21
8.847046039
 31
0.000000000
  0
LINE
  8
PLAIN_
  6
SOLID
 62
     7
 10
40.899993896
 20
13.749987743
 30
0.000000000
 11
41.899993862
 21
12.749987777
 31
0.000000000
  0
LINE
  8
PLAIN_
  6
SOLID
 62
     7
 10
39.899997711
 20
13.749987743
 30
0.000000000
 11
40.899993896
 21
13.749987743
 31
0.000000000
  0
LINE
  8
PLAIN_
  6
SOLID
 62
     7
 10
39.899997711
 20
-13.750049451
 30
0.000000000
 11
40.899993896
 21
-13.750049451
 31
0.000000000
  0
ARC
  8
PLAIN_
  6
SOLID
 62
     7
 10
19.899993896
 20
49.000000140
 30
0.000000000
 40
35.000000000
 50
246.104529230
 51
270.000055325
  0
LINE
  8
PLAIN_
  6
SOLID
 62
     7
 10
39.755645752
 20
-13.999999860
 30
0.000000000
 11
19.899993896
 21
-13.999999860
 31
0.000000000
  0
LINE
  8
PLAIN_
  6
SOLID
 62
     7
 10
39.755643845
 20
14.000000140
 30
0.000000000
 11
19.899993896
 21
14.000000140
 31
0.000000000
  0
LINE
  8
PLAIN_
  6
SOLID
 62
     7
 10
37.399993896
 20
-4.999999860
 30
0.000000000
 11
38.399993862
 21
-5.999999825
 31
0.000000000
  0
LINE
  8
PLAIN_
  6
SOLID
 62
     7
 10
40.899993896
 20
-13.750049451
 30
0.000000000
 11
41.899993862
 21
-12.750049485
 31
0.000000000
  0
INSERT
  2
*D6
  8
PLAIN_
 41
1.000000000
 50
0.000000000
 10
0.000000000
 20
0.000000000
 30
0.000000000
  0
INSERT
  2
*D7
  8
PLAIN_
 41
1.000000000
 50
0.000000000
 10
0.000000000
 20
0.000000000
 30
0.000000000
  0
POLYLINE
  8
PLAIN_
  6
SOLID
 62
     7
 66
     1
 10
0.000000000
 20
0.000000000
 30
0.000000000
  0
VERTEX
  8
PLAIN_
 10
-14.999996185
 20
-90.426349698
 30
0.000000000
  0
VERTEX
  8
PLAIN_
 10
-14.556247767
 20
-90.275924037
 30
0.000000000
  0
VERTEX
  8
PLAIN_
 10
-14.109860128
 20
-90.154280663
 30
0.000000000
  0
VERTEX
  8
PLAIN_
 10
-13.660570127
 20
-90.064289277
 30
0.000000000
  0
VERTEX
  8
PLAIN_
 10
-13.208114624
 20
-90.008819580
 30
0.000000000
  0
VERTEX
  8
PLAIN_
 10
-12.800045093
 20
-89.990026357
 30
0.000000000
  0
VERTEX
  8
PLAIN_
 10
-12.389365795
 20
-89.998669979
 30
0.000000000
  0
VERTEX
  8
PLAIN_
 10
-11.976217110
 20
-90.032195294
 30
0.000000000
  0
VERTEX
  8
PLAIN_
 10
-11.560739416
 20
-90.088047150
 30
0.000000000
  0
VERTEX
  8
PLAIN_
 10
-10.723358525
 20
-90.256509872
 30
0.000000000
  0
VERTEX
  8
PLAIN_
 10
-9.878346162
 20
-90.483616923
 30
0.000000000
  0
VERTEX
  8
PLAIN_
 10
-6.444442749
 20
-91.569664001
 30
0.000000000
  0
VERTEX
  8
PLAIN_
 10
-5.399267699
 20
-91.824247454
 30
0.000000000
  0
VERTEX
  8
PLAIN_
 10
-4.354763066
 20
-92.003657449
 30
0.000000000
  0
VERTEX
  8
PLAIN_
 10
-3.833888981
 20
-92.061499421
 30
0.000000000
  0
VERTEX
  8
PLAIN_
 10
-3.314534691
 20
-92.096140453
 30
0.000000000
  0
VERTEX
  8
PLAIN_
 10
-2.797150926
 20
-92.106111354
 30
0.000000000
  0
VERTEX
  8
PLAIN_
 10
-2.282188416
 20
-92.089942932
 30
0.000000000
  0
VERTEX
  8
PLAIN_
 10
-1.706956886
 20
-92.039606689
 30
0.000000000
  0
VERTEX
  8
PLAIN_
 10
-1.135048624
 20
-91.957323746
 30
0.000000000
  0
VERTEX
  8
PLAIN_
 10
-0.566162200
 20
-91.845991745
 30
0.000000000
  0
VERTEX
  8
PLAIN_
 10
0.000003815
 20
-91.708508331
 30
0.000000000
  0
SEQEND
  0
INSERT
  2
*H1
  8
PLAIN_
 41
1.000000000
 50
0.000000000
 10
0.000000000
 20
0.000000000
 30
0.000000000
  0
INSERT
  2
*D8
  8
PLAIN_
 41
1.000000000
 50
0.000000000
 10
0.000000000
 20
0.000000000
 30
0.000000000
  0
INSERT
  2
*D9
  8
PLAIN_
 41
1.000000000
 50
0.000000000
 10
0.000000000
 20
0.000000000
 30
0.000000000
  0
INSERT
  2
*D10
  8
PLAIN_
 41
1.000000000
 50
0.000000000
 10
0.000000000
 20
0.000000000
 30
0.000000000
  0
ARC
  8
PLAIN_
  6
L_DASH
 62
     7
 10
251.228146879
 20
-106.137644510
 30
0.000000000
 40
10.000000000
 50
274.728140206
 51
299.521743813
  0
LINE
  8
PLAIN_
  6
L_DASH
 62
     7
 10
256.155673825
 20
-114.839337957
 30
0.000000000
 11
301.794814948
 21
-81.680562617
 31
0.000000000
  0
ARC
  8
PLAIN_
  6
L_DASH
 62
     7
 10
242.450403294
 20
-0.000003005
 30
0.000000000
 40
116.500000000
 50
273.444780043
 51
274.727716441
  0
LINE
  8
PLAIN_
  6
L_DASH
 62
     7
 10
249.449897588
 20
-116.289519713
 30
0.000000000
 11
249.449915802
 21
-104.500010357
 31
0.000000000
  0
INSERT
  2
*D11
  8
PLAIN_
 41
1.000000000
 50
0.000000000
 10
0.000000000
 20
0.000000000
 30
0.000000000
  0
ARC
  8
PLAIN_
  6
L_DASH
 62
     7
 10
242.450403294
 20
-104.500003005
 30
0.000000000
 40
7.000000000
 50
0.000000000
 51
180.000039977
  0
LINE
  8
PLAIN_
  6
L_DASH
 62
     7
 10
235.450410766
 20
-116.289508899
 30
0.000000000
 11
235.450410766
 21
-104.499999543
 31
0.000000000
  0
ARC
  8
PLAIN_
  6
L_DASH
 62
     7
 10
242.450581201
 20
0.000001685
 30
0.000000000
 40
116.500000000
 50
265.272176441
 51
266.555137484
  0
ARC
  8
PLAIN_
  6
L_DASH
 62
     7
 10
233.672646064
 20
-106.137642974
 30
0.000000000
 40
10.000000000
 50
240.478252270
 51
265.271752065
  0
LINE
  8
PLAIN_
  6
L_DASH
 62
     7
 10
147.208083156
 20
-55.599195858
 30
0.000000000
 11
228.745120281
 21
-114.839324609
 31
0.000000000
  0
LINE
  8
PLAIN_
  6
L_DASH
 62
     7
 10
301.794815183
 20
-81.680562682
 30
0.000000000
 11
347.433930339
 21
-48.521806636
 31
0.000000000
  0
ARC
  8
PLAIN_
  6
L_DASH
 62
     7
 10
242.450461080
 20
0.000164316
 30
0.000000000
 40
116.500000000
 50
-22.727823644
 51
-21.444862601
  0
ARC
  8
PLAIN_
  6
L_DASH
 62
     7
 10
340.680830457
 20
-41.146465646
 30
0.000000000
 40
10.000000000
 50
312.478254962
 51
337.271754757
  0
LINE
  8
PLAIN_
  6
L_DASH
 62
     7
 10
350.885186269
 20
-42.592828017
 30
0.000000000
 11
339.672696572
 21
-38.949669271
 31
0.000000000
  0
ARC
  8
PLAIN_
  6
L_DASH
 62
     7
 10
341.835816821
 20
-32.292278207
 30
0.000000000
 40
7.000000000
 50
72.000000541
 51
252.000040518
  0
LINE
  8
PLAIN_
  6
L_DASH
 62
     7
 10
355.211275895
 20
-29.278528192
 30
0.000000000
 11
343.998791826
 21
-25.635352123
 31
0.000000000
  0
ARC
  8
PLAIN_
  6
L_DASH
 62
     7
 10
346.105777969
 20
-24.450212438
 30
0.000000000
 40
10.000000000
 50
346.728139943
 51
11.521743550
  0
ARC
  8
PLAIN_
  6
L_DASH
 62
     7
 10
242.450410563
 20
-0.000003234
 30
0.000000000
 40
116.500000000
 50
345.444780585
 51
346.727716983
  0
LINE
  8
PLAIN_
  6
L_DASH
 62
     7
 10
355.904269903
 20
-22.452825198
 30
0.000000000
 11
338.471670759
 21
31.199202458
 31
0.000000000
  0
LINE
  8
PLAIN_
  6
L_DASH
 62
     7
 10
338.471670894
 20
31.199202661
 30
0.000000000
 11
321.039082076
 21
84.851199659
 31
0.000000000
  0
ARC
  8
PLAIN_
  6
L_DASH
 62
     7
 10
242.450269289
 20
0.000098069
 30
0.000000000
 40
116.500000000
 50
49.272175817
 51
50.555136861
  0
ARC
  8
PLAIN_
  6
L_DASH
 62
     7
 10
311.937893710
 20
80.707724090
 30
0.000000000
 40
10.000000000
 50
24.478254699
 51
49.271754493
  0
LINE
  8
PLAIN_
  6
L_DASH
 62
     7
 10
316.466785060
 20
89.965694254
 30
0.000000000
 11
309.537085328
 21
80.427780829
 31
0.000000000
  0
ARC
  8
PLAIN_
  6
L_DASH
 62
     7
 10
303.873973878
 20
84.542266021
 30
0.000000000
 40
7.000000000
 50
143.999998654
 51
324.000038631
  0
LINE
  8
PLAIN_
  6
L_DASH
 62
     7
 10
305.140968665
 20
98.194394896
 30
0.000000000
 11
298.211254198
 21
88.656492178
 31
0.000000000
  0
ARC
  8
PLAIN_
  6
L_DASH
 62
     7
 10
297.735215622
 20
91.026576963
 30
0.000000000
 40
10.000000000
 50
58.728138860
 51
83.521742467
  0
ARC
  8
PLAIN_
  6
L_DASH
 62
     7
 10
242.450413028
 20
-0.000008448
 30
0.000000000
 40
116.500000000
 50
57.444778697
 51
58.727715095
  0
LINE
  8
PLAIN_
  6
L_DASH
 62
     7
 10
298.863486279
 20
100.962729588
 30
0.000000000
 11
242.450406373
 21
100.962729588
 31
0.000000000
  0
LINE
  8
PLAIN_
  6
L_DASH
 62
     7
 10
242.450406222
 20
100.962731095
 30
0.000000000
 11
186.037358664
 21
100.962731095
 31
0.000000000
  0
ARC
  8
PLAIN_
  6
L_DASH
 62
     7
 10
242.450273027
 20
-0.000100385
 30
0.000000000
 40
116.500000000
 50
121.272176170
 51
122.555137213
  0
ARC
  8
PLAIN_
  6
L_DASH
 62
     7
 10
187.165617950
 20
91.026579560
 30
0.000000000
 40
10.000000000
 50
96.478253616
 51
121.271753411
  0
LINE
  8
PLAIN_
  6
L_DASH
 62
     7
 10
179.760267771
 20
98.194685634
 30
0.000000000
 11
186.689967502
 21
88.656772209
 31
0.000000000
  0
ARC
  8
PLAIN_
  6
L_DASH
 62
     7
 10
181.026857897
 20
84.542289488
 30
0.000000000
 40
7.000000000
 50
216.000001346
 51
36.000041323
  0
LINE
  8
PLAIN_
  6
L_DASH
 62
     7
 10
168.434438663
 20
89.966002489
 30
0.000000000
 11
175.364123658
 21
80.428078358
 31
0.000000000
  0
ARC
  8
PLAIN_
  6
L_DASH
 62
     7
 10
172.962934307
 20
80.707737277
 30
0.000000000
 40
10.000000000
 50
130.728139401
 51
155.521743009
  0
ARC
  8
PLAIN_
  6
L_DASH
 62
     7
 10
242.450418748
 20
0.000015019
 30
0.000000000
 40
116.500000000
 50
129.444781389
 51
130.727717787
  0
LINE
  8
PLAIN_
  6
L_DASH
 62
     7
 10
163.861747176
 20
84.851224426
 30
0.000000000
 11
130.605402800
 21
-17.501279167
 31
0.000000000
  0
INSERT
  2
*D12
  8
PLAIN_
 41
1.000000000
 50
0.000000000
 10
0.000000000
 20
0.000000000
 30
0.000000000
  0
ARC
  8
PLAIN_
  6
SOLID
 62
     7
 10
242.450616146
 20
-0.000155041
 30
0.000000000
 40
111.500000000
 50
18.000002322
 51
41.048433233
  0
ARC
  8
PLAIN_
  6
SOLID
 62
     7
 10
136.999534179
 20
-3.224494815
 30
0.000000000
 40
6.000000000
 50
181.751765714
 51
247.999999459
  0
LINE
  8
PLAIN_
  6
SOLID
 62
     7
 10
-110.800450390
 20
119.394108341
 30
0.000000000
 11
-105.000003930
 21
120.999982198
 31
0.000000000
  0
LINE
  8
PLAIN_
  6
SOLID
 62
     7
 10
134.751894649
 20
-8.787598939
 30
0.000000000
 11
149.706873321
 21
-14.829802529
 31
0.000000000
  0
INSERT
  2
*D13
  8
PLAIN_
 41
1.000000000
 50
0.000000000
 10
0.000000000
 20
0.000000000
 30
0.000000000
  0
ARC
  8
PLAIN_
  6
SOLID
 62
     7
 10
343.218606576
 20
-60.432060857
 30
0.000000000
 40
6.000000000
 50
91.856744618
 51
149.048358375
  0
ARC
  8
PLAIN_
  6
SOLID
 62
     7
 10
142.589506476
 20
-32.446783365
 30
0.000000000
 40
19.000000000
 50
327.999999837
 51
68.000994182
  0
ARC
  8
PLAIN_
  6
SOLID
 62
     7
 10
342.311317190
 20
-32.446765797
 30
0.000000000
 40
22.000000000
 50
271.856803131
 51
283.515372144
  0
LINE
  8
PLAIN_
  6
SOLID
 62
     7
 10
-97.999999983
 20
-120.999984741
 30
0.000000000
 11
-96.999999995
 21
-119.999987297
 31
0.000000000
  0
ARC
  8
PLAIN_
  6
SOLID
 62
     7
 10
160.535410791
 20
-57.358532216
 30
0.000000000
 40
6.580000401
 50
-246.361988582
 51
44.504321978
  0
LINE
  8
PLAIN_
  6
CENTER
 62
     7
 10
242.450413288
 20
0.000000051
 30
0.000000000
 11
172.689946742
 21
-96.017042677
 31
0.000000000
  0
LINE
  8
PLAIN_
  6
CENTER
 62
     7
 10
175.624830516
 20
-46.792849580
 30
0.000000000
 11
146.200202190
 21
-67.396114119
 31
0.000000000
  0
INSERT
  2
*D14
  8
PLAIN_
 41
1.000000000
 50
0.000000000
 10
0.000000000
 20
0.000000000
 30
0.000000000
  0
ARC
  8
PLAIN_
  6
SOLID
 62
     7
 10
242.450485241
 20
0.000247846
 30
0.000000000
 40
111.500000000
 50
354.951570241
 51
17.999999024
  0
POLYLINE
  8
PLAIN_
  6
SOLID
 62
     7
 66
     1
 10
0.000000000
 20
0.000000000
 30
0.000000000
  0
VERTEX
  8
PLAIN_
 10
122.356385650
 20
-14.779226795
 30
0.000000000
  0
VERTEX
  8
PLAIN_
 10
123.100074920
 20
-14.753584977
 30
0.000000000
  0
VERTEX
  8
PLAIN_
 10
123.849431130
 20
-14.800428953
 30
0.000000000
  0
VERTEX
  8
PLAIN_
 10
124.593757482
 20
-14.913232940
 30
0.000000000
  0
VERTEX
  8
PLAIN_
 10
125.322357178
 20
-15.085471153
 30
0.000000000
  0
VERTEX
  8
PLAIN_
 10
125.842578107
 20
-15.245907272
 30
0.000000000
  0
VERTEX
  8
PLAIN_
 10
126.350935066
 20
-15.431080557
 30
0.000000000
  0
VERTEX
  8
PLAIN_
 10
127.341663454
 20
-15.860329900
 30
0.000000000
  0
VERTEX
  8
PLAIN_
 10
129.286422729
 20
-16.847278595
 30
0.000000000
  0
VERTEX
  8
PLAIN_
 10
130.699458477
 20
-17.545037239
 30
0.000000000
  0
VERTEX
  8
PLAIN_
 10
131.419238425
 20
-17.862074801
 30
0.000000000
  0
VERTEX
  8
PLAIN_
 10
132.146915168
 20
-18.144229631
 30
0.000000000
  0
VERTEX
  8
PLAIN_
 10
132.881780264
 20
-18.381260559
 30
0.000000000
  0
VERTEX
  8
PLAIN_
 10
133.623125274
 20
-18.562926414
 30
0.000000000
  0
VERTEX
  8
PLAIN_
 10
134.370241754
 20
-18.678986026
 30
0.000000000
  0
VERTEX
  8
PLAIN_
 10
134.745742908
 20
-18.709213126
 30
0.000000000
  0
VERTEX
  8
PLAIN_
 10
135.122421265
 20
-18.719198227
 30
0.000000000
  0
VERTEX
  8
PLAIN_
 10
135.709540775
 20
-18.694121065
 30
0.000000000
  0
VERTEX
  8
PLAIN_
 10
136.298861950
 20
-18.627647986
 30
0.000000000
  0
VERTEX
  8
PLAIN_
 10
137.482412533
 20
-18.412579145
 30
0.000000000
  0
VERTEX
  8
PLAIN_
 10
139.263646127
 20
-18.042413189
 30
0.000000000
  0
VERTEX
  8
PLAIN_
 10
139.857269287
 20
-17.948406219
 30
0.000000000
  0
VERTEX
  8
PLAIN_
 10
140.668558073
 20
-17.868797438
 30
0.000000000
  0
VERTEX
  8
PLAIN_
 10
141.478964043
 20
-17.844857754
 30
0.000000000
  0
VERTEX
  8
PLAIN_
 10
142.289041962
 20
-17.871923139
 30
0.000000000
  0
VERTEX
  8
PLAIN_
 10
143.099346597
 20
-17.945329564
 30
0.000000000
  0
VERTEX
  8
PLAIN_
 10
143.910432714
 20
-18.060413000
 30
0.000000000
  0
VERTEX
  8
PLAIN_
 10
144.722855078
 20
-18.212509418
 30
0.000000000
  0
VERTEX
  8
PLAIN_
 10
145.537168456
 20
-18.396954788
 30
0.000000000
  0
VERTEX
  8
PLAIN_
 10
147.024423889
 20
-18.801721924
 30
0.000000000
  0
VERTEX
  8
PLAIN_
 10
147.688775645
 20
-19.015169482
 30
0.000000000
  0
VERTEX
  8
PLAIN_
 10
148.338821088
 20
-19.254761481
 30
0.000000000
  0
VERTEX
  8
PLAIN_
 10
148.966398427
 20
-19.525831649
 30
0.000000000
  0
VERTEX
  8
PLAIN_
 10
149.563345869
 20
-19.833713712
 30
0.000000000
  0
VERTEX
  8
PLAIN_
 10
150.121501623
 20
-20.183741395
 30
0.000000000
  0
VERTEX
  8
PLAIN_
 10
150.632703895
 20
-20.581248424
 30
0.000000000
  0
VERTEX
  8
PLAIN_
 10
150.868146915
 20
-20.799473484
 30
0.000000000
  0
VERTEX
  8
PLAIN_
 10
151.088790894
 20
-21.031568527
 30
0.000000000
  0
VERTEX
  8
PLAIN_
 10
151.460575611
 20
-21.503844927
 30
0.000000000
  0
VERTEX
  8
PLAIN_
 10
151.782267814
 20
-22.020170938
 30
0.000000000
  0
VERTEX
  8
PLAIN_
 10
152.059228760
 20
-22.573638386
 30
0.000000000
  0
VERTEX
  8
PLAIN_
 10
152.296819706
 20
-23.157339095
 30
0.000000000
  0
VERTEX
  8
PLAIN_
 10
152.500401908
 20
-23.764364890
 30
0.000000000
  0
VERTEX
  8
PLAIN_
 10
152.675336623
 20
-24.387807595
 30
0.000000000
  0
VERTEX
  8
PLAIN_
 10
152.960708618
 20
-25.656311035
 30
0.000000000
  0
VERTEX
  8
PLAIN_
 10
153.238637577
 20
-27.234318613
 30
0.000000000
  0
VERTEX
  8
PLAIN_
 10
153.439932779
 20
-28.797956621
 30
0.000000000
  0
VERTEX
  8
PLAIN_
 10
153.566784662
 20
-30.359881276
 30
0.000000000
  0
VERTEX
  8
PLAIN_
 10
153.621383667
 20
-31.932748795
 30
0.000000000
  0
VERTEX
  8
PLAIN_
 10
153.620459389
 20
-32.817998464
 30
0.000000000
  0
VERTEX
  8
PLAIN_
 10
153.593308096
 20
-33.706413159
 30
0.000000000
  0
VERTEX
  8
PLAIN_
 10
153.535478682
 20
-34.593823144
 30
0.000000000
  0
VERTEX
  8
PLAIN_
 10
153.442520040
 20
-35.476058681
 30
0.000000000
  0
VERTEX
  8
PLAIN_
 10
153.309981067
 20
-36.348950033
 30
0.000000000
  0
VERTEX
  8
PLAIN_
 10
153.133410655
 20
-37.208327462
 30
0.000000000
  0
VERTEX
  8
PLAIN_
 10
152.908357699
 20
-38.050021231
 30
0.000000000
  0
VERTEX
  8
PLAIN_
 10
152.630371094
 20
-38.869861603
 30
0.000000000
  0
VERTEX
  8
PLAIN_
 10
152.344332203
 20
-39.560206683
 30
0.000000000
  0
VERTEX
  8
PLAIN_
 10
152.018796085
 20
-40.233389630
 30
0.000000000
  0
VERTEX
  8
PLAIN_
 10
151.657351140
 20
-40.891787004
 30
0.000000000
  0
VERTEX
  8
PLAIN_
 10
151.263585768
 20
-41.537775362
 30
0.000000000
  0
VERTEX
  8
PLAIN_
 10
150.841088370
 20
-42.173731265
 30
0.000000000
  0
VERTEX
  8
PLAIN_
 10
150.393447344
 20
-42.802031271
 30
0.000000000
  0
VERTEX
  8
PLAIN_
 10
149.437088013
 20
-44.045169830
 30
0.000000000
  0
VERTEX
  8
PLAIN_
 10
148.657889536
 20
-45.019567628
 30
0.000000000
  0
VERTEX
  8
PLAIN_
 10
148.283350545
 20
-45.512042032
 30
0.000000000
  0
VERTEX
  8
PLAIN_
 10
147.933963713
 20
-46.011106151
 30
0.000000000
  0
VERTEX
  8
PLAIN_
 10
147.621063038
 20
-46.519064518
 30
0.000000000
  0
VERTEX
  8
PLAIN_
 10
147.355982516
 20
-47.038221665
 30
0.000000000
  0
VERTEX
  8
PLAIN_
 10
147.150056144
 20
-47.570882126
 30
0.000000000
  0
VERTEX
  8
PLAIN_
 10
147.014617920
 20
-48.119350433
 30
0.000000000
  0
VERTEX
  8
PLAIN_
 10
146.968024914
 20
-48.491461231
 30
0.000000000
  0
VERTEX
  8
PLAIN_
 10
146.952784799
 20
-48.870564993
 30
0.000000000
  0
VERTEX
  8
PLAIN_
 10
146.964493457
 20
-49.255739411
 30
0.000000000
  0
VERTEX
  8
PLAIN_
 10
146.998746769
 20
-49.646062177
 30
0.000000000
  0
VERTEX
  8
PLAIN_
 10
147.117270880
 20
-50.438463518
 30
0.000000000
  0
VERTEX
  8
PLAIN_
 10
147.431073724
 20
-52.044464809
 30
0.000000000
  0
VERTEX
  8
PLAIN_
 10
147.555886556
 20
-52.843307829
 30
0.000000000
  0
VERTEX
  8
PLAIN_
 10
147.594856409
 20
-53.238461853
 30
0.000000000
  0
VERTEX
  8
PLAIN_
 10
147.612329727
 20
-53.629541143
 30
0.000000000
  0
VERTEX
  8
PLAIN_
 10
147.603902393
 20
-54.015623390
 30
0.000000000
  0
VERTEX
  8
PLAIN_
 10
147.565170288
 20
-54.395786285
 30
0.000000000
  0
VERTEX
  8
PLAIN_
 10
147.511477253
 20
-54.688317699
 30
0.000000000
  0
VERTEX
  8
PLAIN_
 10
147.437691636
 20
-54.976513924
 30
0.000000000
  0
VERTEX
  8
PLAIN_
 10
147.234324785
 20
-55.539285785
 30
0.000000000
  0
VERTEX
  8
PLAIN_
 10
146.964033996
 20
-56.082871822
 30
0.000000000
  0
VERTEX
  8
PLAIN_
 10
146.635783528
 20
-56.606041991
 30
0.000000000
  0
VERTEX
  8
PLAIN_
 10
146.258537644
 20
-57.107566246
 30
0.000000000
  0
VERTEX
  8
PLAIN_
 10
145.841260602
 20
-57.586214542
 30
0.000000000
  0
VERTEX
  8
PLAIN_
 10
145.392916665
 20
-58.040756833
 30
0.000000000
  0
VERTEX
  8
PLAIN_
 10
144.922470093
 20
-58.469963074
 30
0.000000000
  0
VERTEX
  8
PLAIN_
 10
144.259300525
 20
-59.013021713
 30
0.000000000
  0
VERTEX
  8
PLAIN_
 10
143.574887565
 20
-59.513476243
 30
0.000000000
  0
VERTEX
  8
PLAIN_
 10
142.872343635
 20
-59.977970574
 30
0.000000000
  0
VERTEX
  8
PLAIN_
 10
142.154781159
 20
-60.413148615
 30
0.000000000
  0
VERTEX
  8
PLAIN_
 10
140.687050256
 20
-61.222131460
 30
0.000000000
  0
VERTEX
  8
PLAIN_
 10
138.693706598
 20
-62.253888584
 30
0.000000000
  0
SEQEND
  0
ARC
  8
PLAIN_
  6
CENTER
 62
     7
 10
242.450638333
 20
-0.000927238
 30
0.000000000
 40
100.000000000
 50
208.634557542
 51
225.983619342
  0
INSERT
  2
*D15
  8
PLAIN_
 41
1.000000000
 50
0.000000000
 10
0.000000000
 20
0.000000000
 30
0.000000000
  0
ARC
  8
PLAIN_
  6
SOLID
 62
     7
 10
288.452523844
 20
108.120653018
 30
0.000000000
 40
6.000000000
 50
246.951764009
 51
304.142909774
  0
ARC
  8
PLAIN_
  6
SOLID
 62
     7
 10
304.167834311
 20
84.946766487
 30
0.000000000
 40
22.000000000
 50
112.484526007
 51
124.143095020
  0
LINE
  8
PLAIN_
  6
SOLID
 62
     7
 10
-105.000023923
 20
-120.999975840
 30
0.000000000
 11
-98.000000954
 21
-120.999984741
 31
0.000000000
  0
LINE
  8
PLAIN_
  6
SOLID
 62
     7
 10
155.556452762
 20
-47.549850300
 30
0.000000000
 11
158.702420395
 21
-42.515249670
 31
0.000000000
  0
ARC
  8
PLAIN_
  6
SOLID
 62
     7
 10
212.931577609
 20
-101.286061062
 30
0.000000000
 40
6.000000000
 50
253.752004630
 51
320.657255973
  0
ARC
  8
PLAIN_
  6
SOLID
 62
     7
 10
331.063800668
 20
77.161717116
 30
0.000000000
 40
6.000000000
 50
163.856744355
 51
221.048432907
  0
ARC
  8
PLAIN_
  6
SOLID
 62
     7
 10
304.167834725
 20
84.946766186
 30
0.000000000
 40
22.000000000
 50
343.856803485
 51
355.515372498
  0
ARC
  8
PLAIN_
  6
SOLID
 62
     7
 10
242.450529219
 20
-0.000086850
 30
0.000000000
 40
111.500000000
 50
66.951764009
 51
89.999998761
  0
ARC
  8
PLAIN_
  6
SOLID
 62
     7
 10
-110.000000000
 20
-116.502865713
 30
0.000000000
 40
3.000000000
 50
180.000000713
 51
254.525064861
  0
LINE
  8
PLAIN_
  6
SOLID
 62
     7
 10
-110.800450390
 20
-119.394107518
 30
0.000000000
 11
-105.000023923
 21
-120.999975840
 31
0.000000000
  0
ARC
  8
PLAIN_
  6
CENTER
 62
     7
 10
242.450529219
 20
-0.000086850
 30
0.000000000
 40
100.000000000
 50
64.634664297
 51
104.794594741
  0
INSERT
  2
*D16
  8
PLAIN_
 41
1.000000000
 50
0.000000000
 10
0.000000000
 20
0.000000000
 30
0.000000000
  0
LINE
  8
PLAIN_
  6
CENTER
 62
     7
 10
125.027905146
 20
-38.152613892
 30
0.000000000
 11
203.169047490
 21
-12.763063820
 31
0.000000000
  0
LINE
  8
PLAIN_
  6
CENTER
 62
     7
 10
242.450162101
 20
-123.464972496
 30
0.000000000
 11
242.450162101
 21
0.000000411
 31
0.000000000
  0
ARC
  8
PLAIN_
  6
SOLID
 62
     7
 10
242.450290689
 20
0.000364625
 30
0.000000000
 40
111.500000000
 50
162.000000976
 51
185.048489502
  0
ARC
  8
PLAIN_
  6
SOLID
 62
     7
 10
242.450566543
 20
0.000000323
 30
0.000000000
 40
111.500000000
 50
234.000003668
 51
257.048235805
  0
ARC
  8
PLAIN_
  6
SOLID
 62
     7
 10
242.450409023
 20
0.000000431
 30
0.000000000
 40
111.500000000
 50
210.622626616
 51
233.999998219
  0
ARC
  8
PLAIN_
  6
SOLID
 62
     7
 10
242.450510684
 20
0.000004433
 30
0.000000000
 40
111.500000000
 50
282.951642188
 51
295.666760536
  0
ARC
  8
PLAIN_
  6
SOLID
 62
     7
 10
242.450373849
 20
-0.000094984
 30
0.000000000
 40
111.500000000
 50
316.333239142
 51
329.048357857
  0
CIRCLE
  8
PLAIN_
  6
SOLID
 62
     7
 10
160.535412612
 20
-57.358517835
 30
0.000000000
 40
11.000000000
  0
INSERT
  2
*D17
  8
PLAIN_
 41
1.000000000
 50
0.000000000
 10
0.000000000
 20
0.000000000
 30
0.000000000
  0
ARC
  8
PLAIN_
  6
SOLID
 62
     7
 10
-110.000000000
 20
116.502866536
 30
0.000000000
 40
3.000000000
 50
105.474935139
 51
155.985357763
  0
INSERT
  2
*D18
  8
PLAIN_
 41
1.000000000
 50
0.000000000
 10
0.000000000
 20
0.000000000
 30
0.000000000
  0
LINE
  8
PLAIN_
  6
CENTER
 62
     7
 10
-184.999996185
 20
-51.259185683
 30
0.000000000
 11
-184.999996185
 21
-79.095755420
 31
0.000000000
  0
ARC
  8
PLAIN_
  6
SOLID
 62
     7
 10
242.450414839
 20
-104.999969148
 30
0.000000000
 40
19.000000000
 50
39.999997950
 51
140.000992294
  0
LINE
  8
PLAIN_
  6
SOLID
 62
     7
 10
240.450406027
 20
107.499904268
 30
0.000000000
 11
240.450406027
 21
111.481972278
 31
0.000000000
  0
LINE
  8
PLAIN_
  6
SOLID
 62
     7
 10
244.450406027
 20
107.499904268
 30
0.000000000
 11
244.450406027
 21
111.481976698
 31
0.000000000
  0
LINE
  8
PLAIN_
  6
SOLID
 62
     7
 10
139.593887987
 20
31.317183870
 30
0.000000000
 11
135.806716259
 21
32.547710531
 31
0.000000000
  0
ARC
  8
PLAIN_
  6
SOLID
 62
     7
 10
140.211921649
 20
33.219296631
 30
0.000000000
 40
2.000000000
 50
252.000000541
 51
72.000040237
  0
LINE
  8
PLAIN_
  6
SOLID
 62
     7
 10
140.829955939
 20
35.121409935
 30
0.000000000
 11
137.042780007
 21
36.351937963
 31
0.000000000
  0
LINE
  8
PLAIN_
  6
SOLID
 62
     7
 10
180.881583236
 20
-88.144819612
 30
0.000000000
 11
178.540982435
 21
-91.366380320
 31
0.000000000
  0
INSERT
  2
*D19
  8
PLAIN_
 41
1.000000000
 50
0.000000000
 10
0.000000000
 20
0.000000000
 30
0.000000000
  0
INSERT
  2
*D20
  8
PLAIN_
 41
1.000000000
 50
0.000000000
 10
0.000000000
 20
0.000000000
 30
0.000000000
  0
INSERT
  2
*D21
  8
PLAIN_
 41
1.000000000
 50
0.000000000
 10
0.000000000
 20
0.000000000
 30
0.000000000
  0
INSERT
  2
*D22
  8
PLAIN_
 41
1.000000000
 50
0.000000000
 10
0.000000000
 20
0.000000000
 30
0.000000000
  0
LINE
  8
PLAIN_
  6
SOLID
 62
     7
 10
197.478061676
 20
-13.360692024
 30
0.000000000
 11
197.478061676
 21
-19.085820198
 31
0.000000000
  0
LINE
  8
PLAIN_
  6
SOLID
 62
     7
 10
192.519947052
 20
-10.498120308
 30
0.000000000
 11
197.478046436
 21
-13.360676829
 31
0.000000000
  0
LINE
  8
PLAIN_
  6
SOLID
 62
     7
 10
187.561847687
 20
-13.360692024
 30
0.000000000
 11
192.519931536
 21
-10.498120449
 31
0.000000000
  0
ARC
  8
PLAIN_
  6
SOLID
 62
     7
 10
242.450408936
 20
-52.500000000
 30
0.000000000
 40
12.500000000
 50
0.000000000
 51
180.000032330
  0
LINE
  8
PLAIN_
  6
SOLID
 62
     7
 10
187.561847687
 20
-19.085820198
 30
0.000000000
 11
187.561832428
 21
-13.360692024
 31
0.000000000
  0
ARC
  8
PLAIN_
  6
SOLID
 62
     7
 10
292.380889554
 20
-16.223394354
 30
0.000000000
 40
11.000000000
 50
260.849896286
 51
153.150144754
  0
LINE
  8
PLAIN_
  6
SOLID
 62
     7
 10
192.519962311
 20
-21.948391914
 30
0.000000000
 11
187.561847828
 21
-19.085820296
 31
0.000000000
  0
CIRCLE
  8
PLAIN_
  6
SOLID
 62
     7
 10
273.309123996
 20
42.473403377
 30
0.000000000
 40
11.000000000
  0
LINE
  8
PLAIN_
  6
SOLID
 62
     7
 10
197.478061676
 20
-19.085812569
 30
0.000000000
 11
192.519962278
 21
-21.948392044
 31
0.000000000
  0
CIRCLE
  8
PLAIN_
  6
SOLID
 62
     7
 10
192.519947052
 20
-16.223256111
 30
0.000000000
 40
9.000000000
  0
CIRCLE
  8
PLAIN_
  6
SOLID
 62
     7
 10
211.591668833
 20
42.473388424
 30
0.000000000
 40
11.000000000
  0
ARC
  8
PLAIN_
  6
SOLID
 62
     7
 10
242.450408936
 20
0.000000000
 30
0.000000000
 40
65.000000000
 50
336.785309480
 51
203.214690520
  0
LINE
  8
PLAIN_
  6
SOLID
 62
     7
 10
297.338954926
 20
-13.360817909
 30
0.000000000
 11
297.338954926
 21
-19.085946083
 31
0.000000000
  0
LINE
  8
PLAIN_
  6
SOLID
 62
     7
 10
292.380840302
 20
-10.498246193
 30
0.000000000
 11
297.338939685
 21
-13.360802714
 31
0.000000000
  0
ARC
  8
PLAIN_
  6
SOLID
 62
     7
 10
192.519931314
 20
-16.223374046
 30
0.000000000
 40
11.000000000
 50
26.849542837
 51
279.150009871
  0
LINE
  8
PLAIN_
  6
SOLID
 62
     7
 10
287.422740936
 20
-13.360817909
 30
0.000000000
 11
292.380824786
 21
-10.498246334
 31
0.000000000
  0
LINE
  8
PLAIN_
  6
SOLID
 62
     7
 10
287.422740936
 20
-19.085946083
 30
0.000000000
 11
287.422725677
 21
-13.360817909
 31
0.000000000
  0
LINE
  8
PLAIN_
  6
SOLID
 62
     7
 10
254.950408936
 20
-52.500001907
 30
0.000000000
 11
254.950408936
 21
-67.000000262
 31
0.000000000
  0
CIRCLE
  8
PLAIN_
  6
SOLID
 62
     7
 10
242.450408936
 20
0.000000000
 30
0.000000000
 40
22.000000000
  0
LINE
  8
PLAIN_
  6
SOLID
 62
     7
 10
224.880428314
 20
13.239929199
 30
0.000000000
 11
207.529824925
 21
-9.785099844
 31
0.000000000
  0
LINE
  8
PLAIN_
  6
SOLID
 62
     7
 10
260.020389557
 20
-13.239929199
 30
0.000000000
 11
241.442016415
 21
-37.894263781
 31
0.000000000
  0
LINE
  8
PLAIN_
  6
SOLID
 62
     7
 10
292.380855560
 20
-21.948517799
 30
0.000000000
 11
287.422741078
 21
-19.085946181
 31
0.000000000
  0
ARC
  8
PLAIN_
  6
SOLID
 62
     7
 10
233.455661774
 20
-31.876113892
 30
0.000000000
 40
10.000000000
 50
293.563581405
 51
322.999978935
  0
LINE
  8
PLAIN_
  6
SOLID
 62
     7
 10
181.013179183
 20
-66.000000350
 30
0.000000000
 11
181.013179183
 21
-48.111704712
 31
0.000000000
  0
LINE
  8
PLAIN_
  6
SOLID
 62
     7
 10
301.887638863
 20
-68.000000000
 30
0.000000000
 11
242.450408936
 21
-68.000000000
 31
0.000000000
  0
LINE
  8
PLAIN_
  6
CENTER
 62
     7
 10
207.950408936
 20
-39.113815308
 30
0.000000000
 11
207.950408936
 21
-74.750000000
 31
0.000000000
  0
LINE
  8
PLAIN_
  6
CENTER
 62
     7
 10
276.950408936
 20
-39.572715759
 30
0.000000000
 11
276.950408936
 21
-74.750000000
 31
0.000000000
  0
LINE
  8
PLAIN_
  6
SOLID
 62
     7
 10
183.013179009
 20
-68.000000000
 30
0.000000000
 11
181.013179183
 21
-66.000000350
 31
0.000000000
  0
ARC
  8
PLAIN_
  6
SOLID
 62
     7
 10
172.713179231
 20
-23.201368549
 30
0.000000000
 40
10.000000000
 50
360.000000000
 51
19.407516273
  0
LINE
  8
PLAIN_
  6
SOLID
 62
     7
 10
297.338954926
 20
-19.085938454
 30
0.000000000
 11
292.380855527
 21
-21.948517929
 31
0.000000000
  0
ARC
  8
PLAIN_
  6
SOLID
 62
     7
 10
201.013179183
 20
-48.111704712
 30
0.000000000
 40
20.000000000
 50
104.914077237
 51
180.000000000
  0
ARC
  8
PLAIN_
  6
SOLID
 62
     7
 10
215.516110420
 20
-15.803253174
 30
0.000000000
 40
10.000000000
 50
142.999745115
 51
181.046507924
  0
ARC
  8
PLAIN_
  6
SOLID
 62
     7
 10
194.587203979
 20
-29.057891846
 30
0.000000000
 40
2.000000000
 50
17.999852058
 51
99.150012606
  0
ARC
  8
PLAIN_
  6
SOLID
 62
     7
 10
192.519947052
 20
-16.223323822
 30
0.000000000
 40
13.000000000
 50
284.914077237
 51
1.046512933
  0
ARC
  8
PLAIN_
  6
SOLID
 62
     7
 10
204.118483543
 20
-10.351890564
 30
0.000000000
 40
2.000000000
 50
206.849514608
 51
288.000064477
  0
LINE
  8
PLAIN_
  6
SOLID
 62
     7
 10
230.612305330
 20
21.397650685
 30
0.000000000
 11
221.453709153
 21
34.003366151
 31
0.000000000
  0
LINE
  8
PLAIN_
  6
SOLID
 62
     7
 10
225.758200272
 20
17.870942073
 30
0.000000000
 11
216.599582866
 21
30.476684552
 31
0.000000000
  0
LINE
  8
PLAIN_
  6
SOLID
 62
     7
 10
254.288505141
 20
21.397651616
 30
0.000000000
 11
263.447105768
 21
34.003392140
 31
0.000000000
  0
LINE
  8
PLAIN_
  6
SOLID
 62
     7
 10
259.142606836
 20
17.870938375
 30
0.000000000
 11
268.301223086
 21
30.476698197
 31
0.000000000
  0
ARC
  8
PLAIN_
  6
SOLID
 62
     7
 10
290.313591003
 20
-29.057960510
 30
0.000000000
 40
2.000000000
 50
80.849791140
 51
162.000149763
  0
LINE
  8
PLAIN_
  6
SOLID
 62
     7
 10
258.006759644
 20
15.556348801
 30
0.000000000
 11
277.137781985
 21
-3.574673541
 31
0.000000000
  0
ARC
  8
PLAIN_
  6
SOLID
 62
     7
 10
214.172549486
 20
28.713337898
 30
0.000000000
 40
3.000000000
 50
35.999176370
 51
100.623168297
  0
ARC
  8
PLAIN_
  6
SOLID
 62
     7
 10
223.880761147
 20
35.766721725
 30
0.000000000
 40
3.000000000
 50
151.376900415
 51
216.000024907
  0
ARC
  8
PLAIN_
  6
SOLID
 62
     7
 10
233.039356232
 20
23.161006927
 30
0.000000000
 40
3.000000000
 50
216.000031738
 51
292.113433207
  0
ARC
  8
PLAIN_
  6
SOLID
 62
     7
 10
223.331151962
 20
16.107584000
 30
0.000000000
 40
3.000000000
 50
319.886563561
 51
36.000087973
  0
ARC
  8
PLAIN_
  6
SOLID
 62
     7
 10
261.020053864
 20
35.766750336
 30
0.000000000
 40
3.000000000
 50
324.000004007
 51
28.623114839
  0
ARC
  8
PLAIN_
  6
SOLID
 62
     7
 10
270.728275299
 20
28.713344574
 30
0.000000000
 40
3.000000000
 50
79.377038430
 51
144.000012659
  0
ARC
  8
PLAIN_
  6
SOLID
 62
     7
 10
261.569656372
 20
16.107585907
 30
0.000000000
 40
3.000000000
 50
143.999978508
 51
220.113455109
  0
ARC
  8
PLAIN_
  6
SOLID
 62
     7
 10
251.861450195
 20
23.161008835
 30
0.000000000
 40
3.000000000
 50
247.886541067
 51
324.000051818
  0
ARC
  8
PLAIN_
  6
SOLID
 62
     7
 10
270.066711426
 20
-10.645740509
 30
0.000000000
 40
10.000000000
 50
345.965933359
 51
45.000064318
  0
ARC
  8
PLAIN_
  6
SOLID
 62
     7
 10
172.713179231
 20
-38.156304032
 30
0.000000000
 40
10.000000000
 50
340.619099598
 51
360.000000000
  0
ARC
  8
PLAIN_
  6
SOLID
 62
     7
 10
292.380874634
 20
-16.223384857
 30
0.000000000
 40
13.000000000
 50
165.965917251
 51
255.085889089
  0
ARC
  8
PLAIN_
  6
SOLID
 62
     7
 10
280.782371521
 20
-10.351875305
 30
0.000000000
 40
2.000000000
 50
251.999831249
 51
333.150107910
  0
LINE
  8
PLAIN_
  6
SOLID
 62
     7
 10
242.450408936
 20
-68.000000000
 30
0.000000000
 11
183.013179009
 21
-68.000000000
 31
0.000000000
  0
LINE
  8
PLAIN_
  6
SOLID
 62
     7
 10
303.887638688
 20
-66.000000350
 30
0.000000000
 11
303.887638688
 21
-48.111704712
 31
0.000000000
  0
ARC
  8
PLAIN_
  6
SOLID
 62
     7
 10
242.450408936
 20
0.000000000
 30
0.000000000
 40
50.000000000
 50
74.127651920
 51
105.872458729
  0
ARC
  8
PLAIN_
  6
SOLID
 62
     7
 10
242.450408936
 20
0.000000000
 30
0.000000000
 40
50.000000000
 50
2.127608935
 51
18.000026000
  0
ARC
  8
PLAIN_
  6
SOLID
 62
     7
 10
292.267242432
 20
33.440734863
 30
0.000000000
 40
10.000000000
 50
154.524371113
 51
213.872431226
  0
ARC
  8
PLAIN_
  6
SOLID
 62
     7
 10
302.409042358
 20
2.227508545
 30
0.000000000
 40
10.000000000
 50
182.127596029
 51
241.475656142
  0
ARC
  8
PLAIN_
  6
SOLID
 62
     7
 10
258.860137939
 20
57.712396622
 30
0.000000000
 40
10.000000000
 50
254.127482987
 51
313.475645553
  0
CIRCLE
  8
PLAIN_
  6
SOLID
 62
     7
 10
292.380840302
 20
-16.223381996
 30
0.000000000
 40
9.000000000
  0
LINE
  8
PLAIN_
  6
SOLID
 62
     7
 10
242.450408157
 20
60.999998702
 30
0.000000000
 11
246.842708384
 21
53.679498323
 31
0.000000000
  0
LINE
  8
PLAIN_
  6
SOLID
 62
     7
 10
246.842708537
 20
53.679498067
 30
0.000000000
 11
238.058107776
 21
53.679498067
 31
0.000000000
  0
LINE
  8
PLAIN_
  6
SOLID
 62
     7
 10
255.950408761
 20
-68.000000000
 30
0.000000000
 11
254.950408936
 21
-67.000000262
 31
0.000000000
  0
LINE
  8
PLAIN_
  6
SOLID
 62
     7
 10
238.058107776
 20
53.679498067
 30
0.000000000
 11
242.450408003
 21
60.999998445
 31
0.000000000
  0
ARC
  8
PLAIN_
  6
SOLID
 62
     7
 10
226.040645599
 20
57.712385178
 30
0.000000000
 40
10.000000000
 50
226.524304815
 51
285.872173683
  0
ARC
  8
PLAIN_
  6
SOLID
 62
     7
 10
191.348165935
 20
36.887503504
 30
0.000000000
 40
10.000000000
 50
346.067756357
 51
15.425958466
  0
LINE
  8
PLAIN_
  6
SOLID
 62
     7
 10
201.053962708
 20
34.479759216
 30
0.000000000
 11
202.028976471
 21
34.162960052
 31
0.000000000
  0
LINE
  8
PLAIN_
  6
SOLID
 62
     7
 10
202.028976440
 20
34.162960052
 30
0.000000000
 11
189.668297348
 21
-3.879300821
 31
0.000000000
  0
LINE
  8
PLAIN_
  6
SOLID
 62
     7
 10
228.950409110
 20
-68.000000000
 30
0.000000000
 11
229.950408936
 21
-67.000000262
 31
0.000000000
  0
LINE
  8
PLAIN_
  6
SOLID
 62
     7
 10
188.693290710
 20
-3.562503815
 30
0.000000000
 11
189.668296824
 21
-3.879302993
 31
0.000000000
  0
ARC
  8
PLAIN_
  6
SOLID
 62
     7
 10
179.425869239
 20
0.194446057
 30
0.000000000
 40
10.000000000
 50
308.574150078
 51
341.999982555
  0
LINE
  8
PLAIN_
  6
L_DASH
 62
     7
 10
191.325407028
 20
-44.999996185
 30
0.000000000
 11
191.325407028
 21
-68.000000000
 31
0.000000000
  0
LINE
  8
PLAIN_
  6
L_DASH
 62
     7
 10
224.575410843
 20
-44.999997139
 30
0.000000000
 11
224.575410843
 21
-67.999997139
 31
0.000000000
  0
LINE
  8
PLAIN_
  6
SOLID
 62
     7
 10
278.267210007
 20
45.335989952
 30
0.000000000
 11
278.267210007
 21
39.610861778
 31
0.000000000
  0
LINE
  8
PLAIN_
  6
L_DASH
 62
     7
 10
191.325408936
 20
-68.000000000
 30
0.000000000
 11
192.805402770
 21
-66.520006165
 31
0.000000000
  0
LINE
  8
PLAIN_
  6
SOLID
 62
     7
 10
273.309095383
 20
48.198561668
 30
0.000000000
 11
278.267194766
 21
45.336005148
 31
0.000000000
  0
LINE
  8
PLAIN_
  6
SOLID
 62
     7
 10
268.350996017
 20
45.335989952
 30
0.000000000
 11
273.309079867
 21
48.198561527
 31
0.000000000
  0
LINE
  8
PLAIN_
  6
L_DASH
 62
     7
 10
223.095410347
 20
-46.479992867
 30
0.000000000
 11
223.095410347
 21
-66.520001411
 31
0.000000000
  0
LINE
  8
PLAIN_
  6
L_DASH
 62
     7
 10
192.805408478
 20
-46.479994774
 30
0.000000000
 11
192.805408478
 21
-66.520007133
 31
0.000000000
  0
LINE
  8
PLAIN_
  6
SOLID
 62
     7
 10
268.350996017
 20
39.610861778
 30
0.000000000
 11
268.350980759
 21
45.335989952
 31
0.000000000
  0
LINE
  8
PLAIN_
  6
SOLID
 62
     7
 10
273.309110641
 20
36.748290062
 30
0.000000000
 11
268.350996159
 21
39.610861680
 31
0.000000000
  0
LINE
  8
PLAIN_
  6
L_DASH
 62
     7
 10
192.805408478
 20
-66.520004272
 30
0.000000000
 11
223.095409393
 21
-66.520004272
 31
0.000000000
  0
LINE
  8
PLAIN_
  6
L_DASH
 62
     7
 10
223.095409393
 20
-46.479995728
 30
0.000000000
 11
224.575410755
 21
-44.999999979
 31
0.000000000
  0
LINE
  8
PLAIN_
  6
L_DASH
 62
     7
 10
223.095409393
 20
-66.520004272
 30
0.000000000
 11
224.575409813
 21
-67.999999952
 31
0.000000000
  0
LINE
  8
PLAIN_
  6
SOLID
 62
     7
 10
278.267210007
 20
39.610869408
 30
0.000000000
 11
273.309110608
 21
36.748289932
 31
0.000000000
  0
CIRCLE
  8
PLAIN_
  6
SOLID
 62
     7
 10
273.309095383
 20
42.473425865
 30
0.000000000
 40
9.000000000
  0
LINE
  8
PLAIN_
  6
SOLID
 62
     7
 10
216.549766541
 20
45.335989952
 30
0.000000000
 11
216.549766541
 21
39.610861778
 31
0.000000000
  0
LINE
  8
PLAIN_
  6
L_DASH
 62
     7
 10
192.805408478
 20
-46.479995728
 30
0.000000000
 11
191.325407116
 21
-44.999999979
 31
0.000000000
  0
LINE
  8
PLAIN_
  6
SOLID
 62
     7
 10
211.591651917
 20
48.198561668
 30
0.000000000
 11
216.549751300
 21
45.336005148
 31
0.000000000
  0
LINE
  8
PLAIN_
  6
SOLID
 62
     7
 10
206.633552551
 20
45.335989952
 30
0.000000000
 11
211.591636401
 21
48.198561527
 31
0.000000000
  0
LINE
  8
PLAIN_
  6
L_DASH
 62
     7
 10
292.095413208
 20
-66.520004272
 30
0.000000000
 11
261.805408478
 21
-66.520004272
 31
0.000000000
  0
LINE
  8
PLAIN_
  6
L_DASH
 62
     7
 10
261.805408478
 20
-66.520004272
 30
0.000000000
 11
260.325409063
 21
-67.999999945
 31
0.000000000
  0
LINE
  8
PLAIN_
  6
L_DASH
 62
     7
 10
260.325408936
 20
-45.000000000
 30
0.000000000
 11
260.325408936
 21
-68.000000000
 31
0.000000000
  0
LINE
  8
PLAIN_
  6
L_DASH
 62
     7
 10
261.805408478
 20
-46.479995728
 30
0.000000000
 11
261.805408478
 21
-66.520004272
 31
0.000000000
  0
LINE
  8
PLAIN_
  6
SOLID
 62
     7
 10
206.633552551
 20
39.610861778
 30
0.000000000
 11
206.633537292
 21
45.335989952
 31
0.000000000
  0
LINE
  8
PLAIN_
  6
SOLID
 62
     7
 10
211.591667175
 20
36.748290062
 30
0.000000000
 11
206.633552693
 21
39.610861680
 31
0.000000000
  0
LINE
  8
PLAIN_
  6
L_DASH
 62
     7
 10
261.805408478
 20
-46.479995728
 30
0.000000000
 11
260.325409063
 21
-45.000000055
 31
0.000000000
  0
LINE
  8
PLAIN_
  6
SOLID
 62
     7
 10
216.549766541
 20
39.610869408
 30
0.000000000
 11
211.591667142
 21
36.748289932
 31
0.000000000
  0
CIRCLE
  8
PLAIN_
  6
SOLID
 62
     7
 10
211.591651917
 20
42.473425865
 30
0.000000000
 40
9.000000000
  0
CIRCLE
  8
PLAIN_
  6
SOLID
 62
     7
 10
242.450374603
 20
-52.499993324
 30
0.000000000
 40
9.000000000
  0
LINE
  8
PLAIN_
  6
L_DASH
 62
     7
 10
292.095413208
 20
-46.479995728
 30
0.000000000
 11
293.575408897
 21
-45.000000038
 31
0.000000000
  0
LINE
  8
PLAIN_
  6
L_DASH
 62
     7
 10
292.095413208
 20
-46.479995728
 30
0.000000000
 11
292.095413208
 21
-66.520004272
 31
0.000000000
  0
LINE
  8
PLAIN_
  6
L_DASH
 62
     7
 10
293.575408936
 20
-45.000000000
 30
0.000000000
 11
293.575408936
 21
-68.000000000
 31
0.000000000
  0
LINE
  8
PLAIN_
  6
L_DASH
 62
     7
 10
293.575408936
 20
-68.000000000
 30
0.000000000
 11
292.095413246
 21
-66.520004311
 31
0.000000000
  0
LINE
  8
PLAIN_
  6
SOLID
 62
     7
 10
242.450389862
 20
-58.225129128
 30
0.000000000
 11
237.492275380
 21
-55.362557509
 31
0.000000000
  0
LINE
  8
PLAIN_
  6
SOLID
 62
     7
 10
237.492275238
 20
-55.362557411
 30
0.000000000
 11
237.492259979
 21
-49.637429237
 31
0.000000000
  0
LINE
  8
PLAIN_
  6
SOLID
 62
     7
 10
237.492275238
 20
-49.637429237
 30
0.000000000
 11
242.450359088
 21
-46.774857662
 31
0.000000000
  0
LINE
  8
PLAIN_
  6
SOLID
 62
     7
 10
242.450374603
 20
-46.774857521
 30
0.000000000
 11
247.408473987
 21
-49.637414042
 31
0.000000000
  0
LINE
  8
PLAIN_
  6
SOLID
 62
     7
 10
247.408489227
 20
-49.637429237
 30
0.000000000
 11
247.408489227
 21
-55.362557411
 31
0.000000000
  0
LINE
  8
PLAIN_
  6
SOLID
 62
     7
 10
247.408489227
 20
-55.362549782
 30
0.000000000
 11
242.450389829
 21
-58.225129257
 31
0.000000000
  0
LINE
  8
PLAIN_
  6
SOLID
 62
     7
 10
229.950408936
 20
-67.000000000
 30
0.000000000
 11
229.950408936
 21
-52.500000000
 31
0.000000000
  0
ARC
  8
PLAIN_
  6
SOLID
 62
     7
 10
242.450408936
 20
0.000000000
 30
0.000000000
 40
44.000000000
 50
216.811557249
 51
254.146696309
  0
LINE
  8
PLAIN_
  6
SOLID
 62
     7
 10
182.713179231
 20
-38.156304032
 30
0.000000000
 11
182.713179231
 21
-22.841239137
 31
0.000000000
  0
ARC
  8
PLAIN_
  6
SOLID
 62
     7
 10
172.713179231
 20
-23.201368549
 30
0.000000000
 40
10.000000000
 50
360.000000000
 51
19.407516273
  0
ARC
  8
PLAIN_
  6
SOLID
 62
     7
 10
312.187638640
 20
-23.201368549
 30
0.000000000
 40
10.000000000
 50
160.592483727
 51
180.000000000
  0
ARC
  8
PLAIN_
  6
SOLID
 62
     7
 10
312.187638640
 20
-38.156304032
 30
0.000000000
 40
10.000000000
 50
180.000000000
 51
199.380900402
  0
LINE
  8
PLAIN_
  6
SOLID
 62
     7
 10
302.187638640
 20
-38.156304032
 30
0.000000000
 11
302.187638640
 21
-22.841239137
 31
0.000000000
  0
ARC
  8
PLAIN_
  6
SOLID
 62
     7
 10
283.887638688
 20
-48.111704712
 30
0.000000000
 40
20.000000000
 50
0.000000000
 51
75.085889089
  0
LINE
  8
PLAIN_
  6
SOLID
 62
     7
 10
301.887638863
 20
-68.000000000
 30
0.000000000
 11
303.887638688
 21
-66.000000350
 31
0.000000000
  0
CIRCLE
  8
PLAIN_
  6
SOLID
 62
     7
 10
242.450408936
 20
0.000000000
 30
0.000000000
 40
19.000000000
  0
POLYLINE
  8
PLAIN_
  6
SOLID
 62
     7
 66
     1
 10
0.000000000
 20
0.000000000
 30
0.000000000
  0
VERTEX
  8
PLAIN_
 10
192.651016235
 20
41.773437500
 30
0.000000000
  0
VERTEX
  8
PLAIN_
 10
195.155142069
 20
44.215409040
 30
0.000000000
  0
VERTEX
  8
PLAIN_
 10
196.425825506
 20
45.415430017
 30
0.000000000
  0
VERTEX
  8
PLAIN_
 10
197.718852997
 20
46.590293169
 30
0.000000000
  0
VERTEX
  8
PLAIN_
 10
199.041672319
 20
47.731612526
 30
0.000000000
  0
VERTEX
  8
PLAIN_
 10
200.401731253
 20
48.831002116
 30
0.000000000
  0
VERTEX
  8
PLAIN_
 10
201.806477576
 20
49.880075969
 30
0.000000000
  0
VERTEX
  8
PLAIN_
 10
202.527935941
 20
50.383123877
 30
0.000000000
  0
VERTEX
  8
PLAIN_
 10
203.263359070
 20
50.870448112
 30
0.000000000
  0
VERTEX
  8
PLAIN_
 10
204.359609485
 20
51.543748558
 30
0.000000000
  0
VERTEX
  8
PLAIN_
 10
204.920581892
 20
51.856551729
 30
0.000000000
  0
VERTEX
  8
PLAIN_
 10
205.490672112
 20
52.147830486
 30
0.000000000
  0
VERTEX
  8
PLAIN_
 10
206.070294902
 20
52.413365044
 30
0.000000000
  0
VERTEX
  8
PLAIN_
 10
206.659865022
 20
52.648935616
 30
0.000000000
  0
VERTEX
  8
PLAIN_
 10
207.259797230
 20
52.850322418
 30
0.000000000
  0
VERTEX
  8
PLAIN_
 10
207.870506287
 20
53.013305664
 30
0.000000000
  0
VERTEX
  8
PLAIN_
 10
208.768505096
 20
53.181636930
 30
0.000000000
  0
VERTEX
  8
PLAIN_
 10
209.678131104
 20
53.305683136
 30
0.000000000
  0
SEQEND
  0
POLYLINE
  8
PLAIN_
  6
SOLID
 62
     7
 66
     1
 10
0.000000000
 20
0.000000000
 30
0.000000000
  0
VERTEX
  8
PLAIN_
 10
292.249801636
 20
41.773437500
 30
0.000000000
  0
VERTEX
  8
PLAIN_
 10
289.745675802
 20
44.215409040
 30
0.000000000
  0
VERTEX
  8
PLAIN_
 10
288.474992365
 20
45.415430017
 30
0.000000000
  0
VERTEX
  8
PLAIN_
 10
287.181964874
 20
46.590293169
 30
0.000000000
  0
VERTEX
  8
PLAIN_
 10
285.859145552
 20
47.731612526
 30
0.000000000
  0
VERTEX
  8
PLAIN_
 10
284.499086618
 20
48.831002116
 30
0.000000000
  0
VERTEX
  8
PLAIN_
 10
283.094340295
 20
49.880075969
 30
0.000000000
  0
VERTEX
  8
PLAIN_
 10
282.372881930
 20
50.383123877
 30
0.000000000
  0
VERTEX
  8
PLAIN_
 10
281.637458801
 20
50.870448112
 30
0.000000000
  0
VERTEX
  8
PLAIN_
 10
280.541208386
 20
51.543748558
 30
0.000000000
  0
VERTEX
  8
PLAIN_
 10
279.980235979
 20
51.856551729
 30
0.000000000
  0
VERTEX
  8
PLAIN_
 10
279.410145760
 20
52.147830486
 30
0.000000000
  0
VERTEX
  8
PLAIN_
 10
278.830522969
 20
52.413365044
 30
0.000000000
  0
VERTEX
  8
PLAIN_
 10
278.240952849
 20
52.648935616
 30
0.000000000
  0
VERTEX
  8
PLAIN_
 10
277.641020641
 20
52.850322418
 30
0.000000000
  0
VERTEX
  8
PLAIN_
 10
277.030311584
 20
53.013305664
 30
0.000000000
  0
VERTEX
  8
PLAIN_
 10
276.132312775
 20
53.181636930
 30
0.000000000
  0
VERTEX
  8
PLAIN_
 10
275.222686768
 20
53.305683136
 30
0.000000000
  0
SEQEND
  0
ARC
  8
PLAIN_
  6
SOLID
 62
     7
 10
242.450408936
 20
0.000000000
 30
0.000000000
 40
50.000000000
 50
18.000026000
 51
33.872429405
  0
TEXT
  8
PLAIN_
  6
SOLID
 62
     7
 10
273.265014648
 20
-58.394943237
 30
0.000000000
 40
8.000000000
  1
A
 50
0.000005009
 41
0.820385754
  0
TEXT
  8
PLAIN_
  6
SOLID
 62
     7
 10
205.745208740
 20
-58.083084106
 30
0.000000000
 40
8.000000000
  1
B
 50
0.000005009
 41
0.718825758
  0
ARC
  8
PLAIN_
  6
SOLID
 62
     7
 10
179.263545874
 20
-86.969247218
 30
0.000000000
 40
2.000000000
 50
323.999998654
 51
144.000038350
  0
LINE
  8
PLAIN_
  6
SOLID
 62
     7
 10
177.645515242
 20
-85.793678652
 30
0.000000000
 11
175.304911843
 21
-89.015242936
 31
0.000000000
  0
LINE
  8
PLAIN_
  6
SOLID
 62
     7
 10
344.070854427
 20
35.121412847
 30
0.000000000
 11
347.858026096
 21
36.351939618
 31
0.000000000
  0
ARC
  8
PLAIN_
  6
SOLID
 62
     7
 10
344.688889464
 20
33.219299529
 30
0.000000000
 40
2.000000000
 50
108.000001083
 51
288.000040778
  0
LINE
  8
PLAIN_
  6
SOLID
 62
     7
 10
345.306922489
 20
31.317186843
 30
0.000000000
 11
349.094098360
 21
32.547714980
 31
0.000000000
  0
ARC
  8
PLAIN_
  6
SOLID
 62
     7
 10
271.969349332
 20
-101.286165230
 30
0.000000000
 40
6.000000000
 50
220.000000000
 51
286.248233745
  0
LINE
  8
PLAIN_
  6
SOLID
 62
     7
 10
267.373082673
 20
-105.142890888
 30
0.000000000
 11
257.005263016
 21
-92.787004564
 31
0.000000000
  0
LINE
  8
PLAIN_
  6
SOLID
 62
     7
 10
-132.000000000
 20
111.412511748
 30
0.000000000
 11
-114.704191768
 21
116.046909604
 31
0.000000000
  0
ARC
  8
PLAIN_
  6
SOLID
 62
     7
 10
-115.480648905
 20
118.944687083
 30
0.000000000
 40
3.000000000
 50
285.000000026
 51
335.985357763
  0
LINE
  8
PLAIN_
  6
SOLID
 62
     7
 10
-118.300000191
 20
-118.000000000
 30
0.000000000
 11
-113.000000000
 21
-118.000000000
 31
0.000000000
  0
LINE
  8
PLAIN_
  6
SOLID
 62
     7
 10
40.899993896
 20
-8.853454450
 30
0.000000000
 11
40.899993896
 21
-13.750049451
 31
0.000000000
  0
LINE
  8
PLAIN_
  6
SOLID
 62
     7
 10
41.899993896
 20
12.749987743
 30
0.000000000
 11
41.899993896
 21
-12.750050404
 31
0.000000000
  0
LINE
  8
PLAIN_
  6
SOLID
 62
     7
 10
37.399993896
 20
5.000000140
 30
0.000000000
 11
38.399993862
 21
6.000000106
 31
0.000000000
  0
LINE
  8
PLAIN_
  6
SOLID
 62
     7
 10
37.399993896
 20
5.000000140
 30
0.000000000
 11
37.399993896
 21
-4.999999860
 31
0.000000000
  0
LINE
  8
PLAIN_
  6
SOLID
 62
     7
 10
38.399993896
 20
-6.499999860
 30
0.000000000
 11
40.899993896
 21
-6.499999860
 31
0.000000000
  0
LINE
  8
PLAIN_
  6
SOLID
 62
     7
 10
38.399993896
 20
6.500000140
 30
0.000000000
 11
40.899993896
 21
6.500000140
 31
0.000000000
  0
LINE
  8
PLAIN_
  6
SOLID
 62
     7
 10
12.822296143
 20
5.000000140
 30
0.000000000
 11
12.822296143
 21
-4.999999860
 31
0.000000000
  0
LINE
  8
PLAIN_
  6
SOLID
 62
     7
 10
38.399993896
 20
6.500000140
 30
0.000000000
 11
38.399993896
 21
-6.499999860
 31
0.000000000
  0
LINE
  8
PLAIN_
  6
SOLID
 62
     7
 10
12.822235107
 20
-4.999999860
 30
0.000000000
 11
15.899993914
 21
-5.999999817
 31
0.000000000
  0
LINE
  8
PLAIN_
  6
SOLID
 62
     7
 10
12.822296143
 20
5.000000140
 30
0.000000000
 11
15.899993836
 21
6.000000156
 31
0.000000000
  0
LINE
  8
PLAIN_
  6
SOLID
 62
     7
 10
7.013275146
 20
0.000000140
 30
0.000000000
 11
9.899993849
 21
-4.999999955
 31
0.000000000
  0
LINE
  8
PLAIN_
  6
SOLID
 62
     7
 10
7.013275146
 20
0.000000140
 30
0.000000000
 11
9.899993849
 21
5.000000236
 31
0.000000000
  0
LINE
  8
PLAIN_
  6
SOLID
 62
     7
 10
9.899993896
 20
5.000000140
 30
0.000000000
 11
9.899993896
 21
-4.999999860
 31
0.000000000
  0
LINE
  8
PLAIN_
  6
SOLID
 62
     7
 10
15.899993896
 20
6.000000140
 30
0.000000000
 11
15.899993896
 21
-5.999999860
 31
0.000000000
  0
LINE
  8
PLAIN_
  6
SOLID
 62
     7
 10
9.899993896
 20
-4.999999860
 30
0.000000000
 11
37.399993896
 21
-4.999999860
 31
0.000000000
  0
LINE
  8
PLAIN_
  6
SOLID
 62
     7
 10
9.899993896
 20
5.000000140
 30
0.000000000
 11
37.399993896
 21
5.000000140
 31
0.000000000
  0
LINE
  8
PLAIN_
  6
SOLID
 62
     7
 10
15.899993896
 20
-5.999999860
 30
0.000000000
 11
38.399993896
 21
-5.999999860
 31
0.000000000
  0
LINE
  8
PLAIN_
  6
SOLID
 62
     7
 10
15.899993896
 20
6.000000140
 30
0.000000000
 11
38.399993896
 21
6.000000140
 31
0.000000000
  0
ARC
  8
PLAIN_
  6
SOLID
 62
     7
 10
40.899993896
 20
-7.499999860
 30
0.000000000
 40
1.000000000
 50
0.000000000
 51
89.999982014
  0
INSERT
  2
*H2
  8
PLAIN_
 41
1.000000000
 50
0.000000000
 10
0.000000000
 20
0.000000000
 30
0.000000000
  0
LINE
  8
PLAIN_
  6
SOLID
 62
     7
 10
39.899993896
 20
-8.853881696
 30
0.000000000
 11
39.899993896
 21
-13.750049451
 31
0.000000000
  0
LINE
  8
PLAIN_
  6
SOLID
 62
     7
 10
-121.800000191
 20
-95.500000000
 30
0.000000000
 11
-121.800000191
 21
-114.500000000
 31
0.000000000
  0
LINE
  8
PLAIN_
  6
SOLID
 62
     7
 10
0.000003815
 20
-87.500000000
 30
0.000000000
 11
5.000003815
 21
-87.500000000
 31
0.000000000
  0
LINE
  8
PLAIN_
  6
SOLID
 62
     7
 10
-118.300000191
 20
-111.000000000
 30
0.000000000
 11
-113.000000000
 21
-111.000000000
 31
0.000000000
  0
ARC
  8
PLAIN_
  6
SOLID
 62
     7
 10
-11.999996185
 20
-113.685211182
 30
0.000000000
 40
3.000000000
 50
180.000000000
 51
270.885951199
  0
ARC
  8
PLAIN_
  6
SOLID
 62
     7
 10
-118.300000191
 20
-95.500000000
 30
0.000000000
 40
3.500000000
 50
90.000000000
 51
270.000000000
  0
LINE
  8
PLAIN_
  6
SOLID
 62
     7
 10
-135.000000000
 20
-62.500000000
 30
0.000000000
 11
-143.000000000
 21
-62.500000000
 31
0.000000000
  0
LINE
  8
PLAIN_
  6
SOLID
 62
     7
 10
-118.300000191
 20
-99.000000000
 30
0.000000000
 11
-113.000000000
 21
-99.000000000
 31
0.000000000
  0
ARC
  8
PLAIN_
  6
SOLID
 62
     7
 10
-118.300000191
 20
-114.500000000
 30
0.000000000
 40
3.500000000
 50
90.000000000
 51
270.000039696
  0
ARC
  8
PLAIN_
  6
SOLID
 62
     7
 10
-114.907143048
 20
-105.000000000
 30
0.000000000
 40
6.892857143
 50
119.487125673
 51
240.512874328
  0
LINE
  8
PLAIN_
  6
SOLID
 62
     7
 10
-105.000003930
 20
120.999982198
 30
0.000000000
 11
-97.500000000
 21
121.000001272
 31
0.000000000
  0
LINE
  8
PLAIN_
  6
SOLID
 62
     7
 10
-132.000000000
 20
70.500000411
 30
0.000000000
 11
-132.000000000
 21
111.412511748
 31
0.000000000
  0
LINE
  8
PLAIN_
  6
SOLID
 62
     7
 10
-135.000000000
 20
0.000000000
 30
0.000000000
 11
-135.000000000
 21
67.500000411
 31
0.000000000
  0
LINE
  8
PLAIN_
  6
SOLID
 62
     7
 10
-135.000000000
 20
62.500000000
 30
0.000000000
 11
-143.000000000
 21
62.500000000
 31
0.000000000
  0
CIRCLE
  8
PLAIN_
  6
SOLID
 62
     7
 10
304.168025970
 20
84.946607590
 30
0.000000000
 40
12.000000000
  0
ARC
  8
PLAIN_
  6
SOLID
 62
     7
 10
242.450406027
 20
0.000000411
 30
0.000000000
 40
118.000000000
 50
211.049978092
 51
116.854599630
  0
LINE
  8
PLAIN_
  6
SOLID
 62
     7
 10
342.311214447
 20
-46.303414593
 30
0.000000000
 11
330.311216099
 21
-39.375212317
 31
0.000000000
  0
LINE
  8
PLAIN_
  6
SOLID
 62
     7
 10
354.311212795
 20
-39.375212317
 30
0.000000000
 11
342.311214447
 21
-46.303414593
 31
0.000000000
  0
LINE
  8
PLAIN_
  6
SOLID
 62
     7
 10
354.311212795
 20
-25.518807764
 30
0.000000000
 11
354.311212795
 21
-39.375212317
 31
0.000000000
  0
LINE
  8
PLAIN_
  6
SOLID
 62
     7
 10
137.466867494
 20
-48.521788159
 30
0.000000000
 11
147.208083121
 21
-55.599195934
 31
0.000000000
  0
LINE
  8
PLAIN_
  6
SOLID
 62
     7
 10
-135.000000000
 20
0.000000000
 30
0.000000000
 11
-135.000000000
 21
-67.499999389
 31
0.000000000
  0
ARC
  8
PLAIN_
  6
SOLID
 62
     7
 10
144.219965539
 20
-41.146459908
 30
0.000000000
 40
10.000000000
 50
202.728137514
 51
227.521741121
  0
ARC
  8
PLAIN_
  6
SOLID
 62
     7
 10
242.450408933
 20
0.000006471
 30
0.000000000
 40
116.500000000
 50
201.444781126
 51
202.727717524
  0
INSERT
  2
*D23
  8
PLAIN_
 41
1.000000000
 50
0.000000000
 10
0.000000000
 20
0.000000000
 30
0.000000000
  0
ARC
  8
PLAIN_
  6
SOLID
 62
     7
 10
143.065003590
 20
-32.292271319
 30
0.000000000
 40
7.000000000
 50
288.000001083
 51
108.000041059
  0
LINE
  8
PLAIN_
  6
SOLID
 62
     7
 10
129.689394812
 20
-29.278040271
 30
0.000000000
 11
140.901884509
 21
-25.634881524
 31
0.000000000
  0
ARC
  8
PLAIN_
  6
SOLID
 62
     7
 10
242.450461595
 20
-0.000163480
 30
0.000000000
 40
116.500000000
 50
193.272176087
 51
194.555137130
  0
ARC
  8
PLAIN_
  6
SOLID
 62
     7
 10
138.795043264
 20
-24.450186991
 30
0.000000000
 40
10.000000000
 50
168.478254158
 51
193.271753952
  0
LINE
  8
PLAIN_
  6
SOLID
 62
     7
 10
130.605400046
 20
-17.501277879
 30
0.000000000
 11
128.996553318
 21
-22.452798471
 31
0.000000000
  0
LINE
  8
PLAIN_
  6
SOLID
 62
     7
 10
342.311214447
 20
-18.590605487
 30
0.000000000
 11
354.311212795
 21
-25.518807764
 31
0.000000000
  0
LINE
  8
PLAIN_
  6
SOLID
 62
     7
 10
330.311216099
 20
-25.518807764
 30
0.000000000
 11
342.311214447
 21
-18.590605487
 31
0.000000000
  0
LINE
  8
PLAIN_
  6
SOLID
 62
     7
 10
330.311216099
 20
-39.375212317
 30
0.000000000
 11
330.311216099
 21
-25.518807764
 31
0.000000000
  0
LINE
  8
PLAIN_
  6
SOLID
 62
     7
 10
292.168027622
 20
91.874807959
 30
0.000000000
 11
304.168025970
 21
98.803010236
 31
0.000000000
  0
LINE
  8
PLAIN_
  6
SOLID
 62
     7
 10
292.168027622
 20
78.018403406
 30
0.000000000
 11
292.168027622
 21
91.874807959
 31
0.000000000
  0
LINE
  8
PLAIN_
  6
SOLID
 62
     7
 10
304.168025970
 20
71.090201129
 30
0.000000000
 11
292.168027622
 21
78.018403406
 31
0.000000000
  0
LINE
  8
PLAIN_
  6
SOLID
 62
     7
 10
316.168024319
 20
78.018403406
 30
0.000000000
 11
304.168025970
 21
71.090201129
 31
0.000000000
  0
LINE
  8
PLAIN_
  6
SOLID
 62
     7
 10
316.168024319
 20
91.874807959
 30
0.000000000
 11
316.168024319
 21
78.018403406
 31
0.000000000
  0
LINE
  8
PLAIN_
  6
SOLID
 62
     7
 10
304.168025970
 20
98.803010236
 30
0.000000000
 11
316.168024319
 21
91.874807959
 31
0.000000000
  0
CIRCLE
  8
PLAIN_
  6
SOLID
 62
     7
 10
180.733181000
 20
84.946897507
 30
0.000000000
 40
12.000000000
  0
LINE
  8
PLAIN_
  6
SOLID
 62
     7
 10
168.733182652
 20
91.875097876
 30
0.000000000
 11
180.733181000
 21
98.803300153
 31
0.000000000
  0
LINE
  8
PLAIN_
  6
SOLID
 62
     7
 10
168.733182652
 20
78.018693323
 30
0.000000000
 11
168.733182652
 21
91.875097876
 31
0.000000000
  0
LINE
  8
PLAIN_
  6
SOLID
 62
     7
 10
180.733181000
 20
71.090491046
 30
0.000000000
 11
168.733182652
 21
78.018693323
 31
0.000000000
  0
LINE
  8
PLAIN_
  6
SOLID
 62
     7
 10
192.733179348
 20
78.018693323
 30
0.000000000
 11
180.733181000
 21
71.090491046
 31
0.000000000
  0
LINE
  8
PLAIN_
  6
SOLID
 62
     7
 10
192.733179348
 20
91.875097876
 30
0.000000000
 11
192.733179348
 21
78.018693323
 31
0.000000000
  0
LINE
  8
PLAIN_
  6
SOLID
 62
     7
 10
180.733181000
 20
98.803300153
 30
0.000000000
 11
192.733179348
 21
91.875097876
 31
0.000000000
  0
CIRCLE
  8
PLAIN_
  6
SOLID
 62
     7
 10
242.450160980
 20
-104.999963760
 30
0.000000000
 40
12.000000000
  0
LINE
  8
PLAIN_
  6
SOLID
 62
     7
 10
230.450162632
 20
-98.071763391
 30
0.000000000
 11
242.450160980
 21
-91.143561115
 31
0.000000000
  0
LINE
  8
PLAIN_
  6
SOLID
 62
     7
 10
230.450162632
 20
-111.928167944
 30
0.000000000
 11
230.450162632
 21
-98.071763391
 31
0.000000000
  0
LINE
  8
PLAIN_
  6
SOLID
 62
     7
 10
242.450160980
 20
-118.856370221
 30
0.000000000
 11
230.450162632
 21
-111.928167944
 31
0.000000000
  0
LINE
  8
PLAIN_
  6
SOLID
 62
     7
 10
254.450159328
 20
-111.928167944
 30
0.000000000
 11
242.450160980
 21
-118.856370221
 31
0.000000000
  0
LINE
  8
PLAIN_
  6
SOLID
 62
     7
 10
254.450159328
 20
-98.071763391
 30
0.000000000
 11
254.450159328
 21
-111.928167944
 31
0.000000000
  0
LINE
  8
PLAIN_
  6
SOLID
 62
     7
 10
242.450160980
 20
-91.143561115
 30
0.000000000
 11
254.450159328
 21
-98.071763391
 31
0.000000000
  0
LINE
  8
PLAIN_
  6
SOLID
 62
     7
 10
0.000003815
 20
0.000000000
 30
0.000000000
 11
0.000003815
 21
-116.500000000
 31
0.000000000
  0
LINE
  8
PLAIN_
  6
SOLID
 62
     7
 10
0.000003815
 20
-116.500000000
 30
0.000000000
 11
-11.953609738
 21
-116.684850655
 31
0.000000000
  0
LINE
  8
PLAIN_
  6
SOLID
 62
     7
 10
0.000003815
 20
87.500000000
 30
0.000000000
 11
5.000003815
 21
87.500000000
 31
0.000000000
  0
ARC
  8
PLAIN_
  6
SOLID
 62
     7
 10
-33.999996185
 20
-115.000000000
 30
0.000000000
 40
28.000000000
 50
141.929032776
 51
170.130694932
  0
ARC
  8
PLAIN_
  6
SOLID
 62
     7
 10
-33.079982758
 20
113.883506775
 30
0.000000000
 40
5.000000000
 50
75.000087464
 51
88.999954381
  0
ARC
  8
PLAIN_
  6
SOLID
 62
     7
 10
-0.043880463
 20
108.000000000
 30
0.000000000
 40
3.000000000
 50
170.188319689
 51
270.838157329
  0
ARC
  8
PLAIN_
  6
SOLID
 62
     7
 10
-75.999996185
 20
-121.000000000
 30
0.000000000
 40
3.000000000
 50
90.000000000
 51
180.000185406
  0
ARC
  8
PLAIN_
  6
SOLID
 62
     7
 10
-115.999998414
 20
-89.644756654
 30
0.000000000
 40
3.000000000
 50
0.000000000
 51
86.999999999
  0
LINE
  8
PLAIN_
  6
SOLID
 62
     7
 10
-132.000000000
 20
-85.802115064
 30
0.000000000
 11
-115.842990545
 21
-86.648868050
 31
0.000000000
  0
LINE
  8
PLAIN_
  6
SOLID
 62
     7
 10
-131.000000000
 20
105.412511748
 30
0.000000000
 11
-131.000000000
 21
111.680460941
 31
0.000000000
  0
LINE
  8
PLAIN_
  6
SOLID
 62
     7
 10
-131.000000000
 20
105.412511748
 30
0.000000000
 11
-132.000000000
 21
105.412511748
 31
0.000000000
  0
ARC
  8
PLAIN_
  6
SOLID
 62
     7
 10
-135.000000000
 20
70.500000411
 30
0.000000000
 40
3.000000000
 50
270.000000000
 51
0.000000000
  0
LINE
  8
PLAIN_
  6
SOLID
 62
     7
 10
-143.000000000
 20
-62.500000000
 30
0.000000000
 11
-143.999999966
 21
-61.500000034
 31
0.000000000
  0
LINE
  8
PLAIN_
  6
SOLID
 62
     7
 10
-143.000000000
 20
62.500000000
 30
0.000000000
 11
-143.999999966
 21
61.500000034
 31
0.000000000
  0
LINE
  8
PLAIN_
  6
SOLID
 62
     7
 10
-78.515861511
 20
121.000000000
 30
0.000000000
 11
-95.999992371
 21
121.000000000
 31
0.000000000
  0
LINE
  8
PLAIN_
  6
SOLID
 62
     7
 10
-95.999996185
 20
121.000000000
 30
0.000000000
 11
-96.999996151
 21
120.000000034
 31
0.000000000
  0
ARC
  8
PLAIN_
  6
SOLID
 62
     7
 10
-75.999996185
 20
122.633880615
 30
0.000000000
 40
3.000000000
 50
213.000549952
 51
278.674929350
  0
LINE
  8
PLAIN_
  6
SOLID
 62
     7
 10
-14.999996185
 20
-97.107211176
 30
0.000000000
 11
0.000003815
 21
-97.500000000
 31
0.000000000
  0
LINE
  8
PLAIN_
  6
SOLID
 62
     7
 10
-78.999996185
 20
-121.000007629
 30
0.000000000
 11
-95.999992371
 21
-121.000007629
 31
0.000000000
  0
LINE
  8
PLAIN_
  6
SOLID
 62
     7
 10
-95.999996185
 20
-121.000007629
 30
0.000000000
 11
-96.999996151
 21
-120.000007664
 31
0.000000000
  0
LINE
  8
PLAIN_
  6
CENTER
 62
     7
 10
-128.566656113
 20
-105.000000000
 30
0.000000000
 11
-53.906260612
 21
-105.000000000
 31
0.000000000
  0
LINE
  8
PLAIN_
  6
SOLID
 62
     7
 10
5.000003815
 20
87.500000000
 30
0.000000000
 11
5.000003815
 21
-87.500000000
 31
0.000000000
  0
LINE
  8
PLAIN_
  6
CENTER
 62
     7
 10
-23.345211029
 20
-104.500000000
 30
0.000000000
 11
5.408084869
 21
-104.500000000
 31
0.000000000
  0
ENDSEC
  0
EOF
