  0
SECTION
  2
HEADER
  9
$SPLINETYPE
 70
     6
  9
$FILLMODE
 70
     1
  9
$LTSCALE
 40
1.000000000
  0
ENDSEC
  0
SECTION
  2
TABLES
  0
TABLE
  2
LTYPE
 70
     8
  0
LTYPE
  2
SOLID
 70
    64
  3

 72
    65
 73
     0
 40
0.000000000
  0
LTYPE
  2
DASH
 70
    64
  3

 72
    65
 73
     3
 40
3.500000000
 49
1.500000000
 49
-1.500000000
 49
0.500000000
  0
LTYPE
  2
CENTER
 70
    64
  3

 72
    65
 73
     4
 40
8.000000000
 49
4.500000000
 49
-1.500000000
 49
0.500000000
 49
-1.500000000
  0
LTYPE
  2
L_DASH
 70
    64
  3

 72
    65
 73
     1
 40
0.500000000
 49
0.500000000
  0
LTYPE
  2
FONT_5
 70
    64
  3

 72
    65
 73
     8
 40
9.000000000
 49
0.500000000
 49
-2.500000000
 49
0.500000000
 49
-1.500000000
 49
0.500000000
 49
-1.500000000
 49
0.500000000
 49
-1.500000000
  0
LTYPE
  2
FONT_6
 70
    64
  3

 72
    65
 73
    11
 40
8.000000000
 49
0.500000000
 49
-1.000000000
 49
0.500000000
 49
-1.000000000
 49
0.500000000
 49
-1.000000000
 49
0.500000000
 49
-1.000000000
 49
0.500000000
 49
-1.000000000
 49
0.500000000
  0
LTYPE
  2
FONT_7
 70
    64
  3

 72
    65
 73
     4
 40
8.000000000
 49
1.000000000
 49
-5.000000000
 49
1.000000000
 49
-1.000000000
  0
LTYPE
  2
FONT_8
 70
    64
  3

 72
    65
 73
     4
 40
8.000000000
 49
1.000000000
 49
-5.000000000
 49
1.000000000
 49
-1.000000000
  0
ENDTAB
  0
TABLE
  2
LAYER
 70
     1
  0
LAYER
  2
PLAIN_
 70
    64
 62
     7
  6
SOLID
  0
ENDTAB
  0
TABLE
  2
STYLE
 70
     0
  0
STYLE
  2
STANDARD
 70
    64
 40
0.000000000
 41
1.000000000
 50
0.000000000
 71
     0
 42
0.000000000
  3
txt.shx
  4

  0
ENDTAB
  0
TABLE
  2
UCS
 70
     0
  0
ENDTAB
  0
ENDSEC
  0
SECTION
  2
BLOCKS
  0
BLOCK
  2
*L1
  8
PLAIN_
 70
    65
 10
0.000000000
 20
0.000000000
 30
0.000000000
  3
*L1
  0
LINE
  8
PLAIN_
  6
SOLID
 62
     7
 10
392.217010498
 20
100.341712952
 30
0.000000000
 11
431.548553467
 21
138.392089844
 31
0.000000000
  0
LINE
  8
PLAIN_
  6
SOLID
 62
     7
 10
431.548553467
 20
138.392089844
 30
0.000000000
 11
454.645080566
 21
155.139099121
 31
0.000000000
  0
LINE
  8
PLAIN_
  6
SOLID
 62
     7
 10
398.245452881
 20
108.492492676
 30
0.000000000
 11
392.217010498
 21
100.341712952
 31
0.000000000
  0
LINE
  8
PLAIN_
  6
SOLID
 62
     7
 10
392.217010498
 20
100.341712952
 30
0.000000000
 11
400.562896729
 21
106.097015381
 31
0.000000000
  0
LINE
  8
PLAIN_
  6
SOLID
 62
     7
 10
400.562896729
 20
106.097015381
 30
0.000000000
 11
398.245452881
 21
108.492492676
 31
0.000000000
  0
TEXT
  8
PLAIN_
  6
SOLID
 62
     7
 10
460.036285400
 20
149.747894287
 30
0.000000000
 40
10.000000000
  1
%%c 216
 50
0.000000000
 41
0.798735886
  0
ENDBLK
  0
BLOCK
  2
*D1
  8
PLAIN_
 70
    65
 10
0.000000000
 20
0.000000000
 30
0.000000000
  3
*D1
  0
LINE
  8
PLAIN_
  6
SOLID
 62
     7
 10
-163.307327271
 20
-63.154148102
 30
0.000000000
 11
-266.103179932
 21
-63.154144287
 31
0.000000000
  0
LINE
  8
PLAIN_
  6
SOLID
 62
     7
 10
-163.307327271
 20
86.845848083
 30
0.000000000
 11
-266.103179932
 21
86.845855713
 31
0.000000000
  0
LINE
  8
PLAIN_
  6
SOLID
 62
     7
 10
-264.436523438
 20
-63.154144287
 30
0.000000000
 11
-264.436523438
 21
86.845855713
 31
0.000000000
  0
LINE
  8
PLAIN_
  6
SOLID
 62
     7
 10
-266.103027344
 20
-53.154144287
 30
0.000000000
 11
-264.436523438
 21
-63.154144287
 31
0.000000000
  0
LINE
  8
PLAIN_
  6
SOLID
 62
     7
 10
-264.436523438
 20
-63.154144287
 30
0.000000000
 11
-262.770019531
 21
-53.154144287
 31
0.000000000
  0
LINE
  8
PLAIN_
  6
SOLID
 62
     7
 10
-262.770019531
 20
-53.154144287
 30
0.000000000
 11
-266.103027344
 21
-53.154144287
 31
0.000000000
  0
LINE
  8
PLAIN_
  6
SOLID
 62
     7
 10
-264.436523438
 20
86.845855713
 30
0.000000000
 11
-264.436523438
 21
-63.154144287
 31
0.000000000
  0
LINE
  8
PLAIN_
  6
SOLID
 62
     7
 10
-262.770019531
 20
76.845855713
 30
0.000000000
 11
-264.436523438
 21
86.845855713
 31
0.000000000
  0
LINE
  8
PLAIN_
  6
SOLID
 62
     7
 10
-264.436523438
 20
86.845855713
 30
0.000000000
 11
-266.103027344
 21
76.845855713
 31
0.000000000
  0
LINE
  8
PLAIN_
  6
SOLID
 62
     7
 10
-266.103027344
 20
76.845855713
 30
0.000000000
 11
-262.770019531
 21
76.845855713
 31
0.000000000
  0
TEXT
  8
PLAIN_
  6
SOLID
 62
     7
 10
-269.436523438
 20
-27.911033630
 30
0.000000000
 40
10.000000000
  1
%%c
 50
90.000002504
 41
0.666615391
  0
TEXT
  8
PLAIN_
  6
SOLID
 62
     7
 10
-269.436523438
 20
-19.077703476
 30
0.000000000
 40
10.000000000
  1
150
 50
90.000002504
 41
0.783230782
  0
TEXT
  8
PLAIN_
  6
SOLID
 62
     7
 10
-279.936523438
 20
10.422286987
 30
0.000000000
 40
7.000000000
  1
-0.043
 50
90.000002504
 41
0.833230791
  0
TEXT
  8
PLAIN_
  6
SOLID
 62
     7
 10
-264.936523438
 20
10.422287941
 30
0.000000000
 40
7.000000000
  1
-0.083
 50
90.000002504
 41
0.833230791
  0
TEXT
  8
PLAIN_
  6
SOLID
 62
     7
 10
-269.436523438
 20
47.522274017
 30
0.000000000
 40
10.000000000
  1
f7
 50
90.000002504
 41
0.733230782
  0
ENDBLK
  0
BLOCK
  2
*L2
  8
PLAIN_
 70
    65
 10
0.000000000
 20
0.000000000
 30
0.000000000
  3
*L2
  0
LINE
  8
PLAIN_
  6
SOLID
 62
     7
 10
47.400436401
 20
29.819370270
 30
0.000000000
 11
58.903488159
 21
157.071899414
 31
0.000000000
  0
LINE
  8
PLAIN_
  6
SOLID
 62
     7
 10
58.903488159
 20
157.071899414
 30
0.000000000
 11
95.247879028
 21
211.184753418
 31
0.000000000
  0
LINE
  8
PLAIN_
  6
SOLID
 62
     7
 10
46.640987396
 20
39.928791046
 30
0.000000000
 11
47.400436401
 21
29.819370270
 31
0.000000000
  0
LINE
  8
PLAIN_
  6
SOLID
 62
     7
 10
47.400436401
 20
29.819370270
 30
0.000000000
 11
49.960453033
 21
39.628726959
 31
0.000000000
  0
LINE
  8
PLAIN_
  6
SOLID
 62
     7
 10
49.960453033
 20
39.628726959
 30
0.000000000
 11
46.640987396
 21
39.928791046
 31
0.000000000
  0
TEXT
  8
PLAIN_
  6
SOLID
 62
     7
 10
100.380615234
 20
211.184753418
 30
0.000000000
 40
10.000000000
  1
36 UNI 220
 50
0.000000000
 41
0.773558655
  0
TEXT
  8
PLAIN_
  6
SOLID
 62
     7
 10
100.380615234
 20
196.184753418
 30
0.000000000
 40
10.000000000
  1
40X3X12 DIN 5480
 50
0.000000000
 41
0.770061922
  0
ENDBLK
  0
BLOCK
  2
*D2
  8
PLAIN_
 70
    65
 10
0.000000000
 20
0.000000000
 30
0.000000000
  3
*D2
  0
LINE
  8
PLAIN_
  6
SOLID
 62
     7
 10
42.859344482
 20
3.131565332
 30
0.000000000
 11
42.859344482
 21
-36.413688660
 31
0.000000000
  0
LINE
  8
PLAIN_
  6
SOLID
 62
     7
 10
74.859344482
 20
-5.368434906
 30
0.000000000
 11
74.859344482
 21
-36.413688660
 31
0.000000000
  0
LINE
  8
PLAIN_
  6
SOLID
 62
     7
 10
42.859344482
 20
-35.699401855
 30
0.000000000
 11
27.859344482
 21
-35.699401855
 31
0.000000000
  0
LINE
  8
PLAIN_
  6
SOLID
 62
     7
 10
27.859344482
 20
-35.699401855
 30
0.000000000
 11
89.859344482
 21
-35.699401855
 31
0.000000000
  0
LINE
  8
PLAIN_
  6
SOLID
 62
     7
 10
32.859344482
 20
-37.365901947
 30
0.000000000
 11
42.859344482
 21
-35.699401855
 31
0.000000000
  0
LINE
  8
PLAIN_
  6
SOLID
 62
     7
 10
42.859344482
 20
-35.699401855
 30
0.000000000
 11
32.859344482
 21
-34.032901764
 31
0.000000000
  0
LINE
  8
PLAIN_
  6
SOLID
 62
     7
 10
32.859344482
 20
-34.032901764
 30
0.000000000
 11
32.859344482
 21
-37.365901947
 31
0.000000000
  0
LINE
  8
PLAIN_
  6
SOLID
 62
     7
 10
74.859344482
 20
-35.699401855
 30
0.000000000
 11
89.859344482
 21
-35.699401855
 31
0.000000000
  0
LINE
  8
PLAIN_
  6
SOLID
 62
     7
 10
89.859344482
 20
-35.699401855
 30
0.000000000
 11
27.859344482
 21
-35.699401855
 31
0.000000000
  0
LINE
  8
PLAIN_
  6
SOLID
 62
     7
 10
84.859344482
 20
-34.032901764
 30
0.000000000
 11
74.859344482
 21
-35.699401855
 31
0.000000000
  0
LINE
  8
PLAIN_
  6
SOLID
 62
     7
 10
74.859344482
 20
-35.699401855
 30
0.000000000
 11
84.859344482
 21
-37.365901947
 31
0.000000000
  0
LINE
  8
PLAIN_
  6
SOLID
 62
     7
 10
84.859344482
 20
-37.365901947
 30
0.000000000
 11
84.859344482
 21
-34.032901764
 31
0.000000000
  0
TEXT
  8
PLAIN_
  6
SOLID
 62
     7
 10
51.043228149
 20
-30.699401855
 30
0.000000000
 40
10.000000000
  1
32
 50
0.000000000
 41
0.733230782
  0
ENDBLK
  0
BLOCK
  2
*D3
  8
PLAIN_
 70
    65
 10
0.000000000
 20
0.000000000
 30
0.000000000
  3
*D3
  0
LINE
  8
PLAIN_
  6
SOLID
 62
     7
 10
26.859344482
 20
34.524951935
 30
0.000000000
 11
26.859344482
 21
49.945056915
 31
0.000000000
  0
LINE
  8
PLAIN_
  6
SOLID
 62
     7
 10
74.859344482
 20
29.060136795
 30
0.000000000
 11
74.859344482
 21
49.945056915
 31
0.000000000
  0
LINE
  8
PLAIN_
  6
SOLID
 62
     7
 10
26.859344482
 20
49.230770111
 30
0.000000000
 11
74.859344482
 21
49.230770111
 31
0.000000000
  0
LINE
  8
PLAIN_
  6
SOLID
 62
     7
 10
36.859344482
 20
50.897270203
 30
0.000000000
 11
26.859344482
 21
49.230770111
 31
0.000000000
  0
LINE
  8
PLAIN_
  6
SOLID
 62
     7
 10
26.859344482
 20
49.230770111
 30
0.000000000
 11
36.859344482
 21
47.564270020
 31
0.000000000
  0
LINE
  8
PLAIN_
  6
SOLID
 62
     7
 10
36.859344482
 20
47.564270020
 30
0.000000000
 11
36.859344482
 21
50.897270203
 31
0.000000000
  0
LINE
  8
PLAIN_
  6
SOLID
 62
     7
 10
74.859344482
 20
49.230770111
 30
0.000000000
 11
26.859344482
 21
49.230770111
 31
0.000000000
  0
LINE
  8
PLAIN_
  6
SOLID
 62
     7
 10
64.859344482
 20
47.564270020
 30
0.000000000
 11
74.859344482
 21
49.230770111
 31
0.000000000
  0
LINE
  8
PLAIN_
  6
SOLID
 62
     7
 10
74.859344482
 20
49.230770111
 30
0.000000000
 11
64.859344482
 21
50.897270203
 31
0.000000000
  0
LINE
  8
PLAIN_
  6
SOLID
 62
     7
 10
64.859344482
 20
50.897270203
 30
0.000000000
 11
64.859344482
 21
47.564270020
 31
0.000000000
  0
TEXT
  8
PLAIN_
  6
SOLID
 62
     7
 10
28.917102814
 20
54.230770111
 30
0.000000000
 40
10.000000000
  1
48
 50
0.000000000
 41
0.769923067
  0
ENDBLK
  0
BLOCK
  2
*D4
  8
PLAIN_
 70
    65
 10
0.000000000
 20
0.000000000
 30
0.000000000
  3
*D4
  0
LINE
  8
PLAIN_
  6
SOLID
 62
     7
 10
2.859344482
 20
138.739135742
 30
0.000000000
 11
2.859344482
 21
185.960479736
 31
0.000000000
  0
LINE
  8
PLAIN_
  6
SOLID
 62
     7
 10
74.859344482
 20
29.060136795
 30
0.000000000
 11
74.859344482
 21
185.960479736
 31
0.000000000
  0
LINE
  8
PLAIN_
  6
SOLID
 62
     7
 10
2.859344482
 20
185.246200562
 30
0.000000000
 11
74.859344482
 21
185.246200562
 31
0.000000000
  0
LINE
  8
PLAIN_
  6
SOLID
 62
     7
 10
12.859344482
 20
186.912704468
 30
0.000000000
 11
2.859344482
 21
185.246200562
 31
0.000000000
  0
LINE
  8
PLAIN_
  6
SOLID
 62
     7
 10
2.859344482
 20
185.246200562
 30
0.000000000
 11
12.859344482
 21
183.579696655
 31
0.000000000
  0
LINE
  8
PLAIN_
  6
SOLID
 62
     7
 10
12.859344482
 20
183.579696655
 30
0.000000000
 11
12.859344482
 21
186.912704468
 31
0.000000000
  0
LINE
  8
PLAIN_
  6
SOLID
 62
     7
 10
74.859344482
 20
185.246200562
 30
0.000000000
 11
2.859344482
 21
185.246200562
 31
0.000000000
  0
LINE
  8
PLAIN_
  6
SOLID
 62
     7
 10
64.859344482
 20
183.579696655
 30
0.000000000
 11
74.859344482
 21
185.246200562
 31
0.000000000
  0
LINE
  8
PLAIN_
  6
SOLID
 62
     7
 10
74.859344482
 20
185.246200562
 30
0.000000000
 11
64.859344482
 21
186.912704468
 31
0.000000000
  0
LINE
  8
PLAIN_
  6
SOLID
 62
     7
 10
64.859344482
 20
186.912704468
 30
0.000000000
 11
64.859344482
 21
183.579696655
 31
0.000000000
  0
TEXT
  8
PLAIN_
  6
SOLID
 62
     7
 10
27.269453049
 20
190.246200562
 30
0.000000000
 40
10.000000000
  1
72
 50
0.000000000
 41
0.733230782
  0
ENDBLK
  0
BLOCK
  2
*D5
  8
PLAIN_
 70
    65
 10
0.000000000
 20
0.000000000
 30
0.000000000
  3
*D5
  0
LINE
  8
PLAIN_
  6
SOLID
 62
     7
 10
71.573631287
 20
3.845850945
 30
0.000000000
 11
97.793617249
 21
3.845851898
 31
0.000000000
  0
LINE
  8
PLAIN_
  6
SOLID
 62
     7
 10
71.573631287
 20
19.845851898
 30
0.000000000
 11
97.793617249
 21
19.845851898
 31
0.000000000
  0
LINE
  8
PLAIN_
  6
SOLID
 62
     7
 10
97.079330444
 20
3.845851898
 30
0.000000000
 11
97.079330444
 21
-11.154148102
 31
0.000000000
  0
LINE
  8
PLAIN_
  6
SOLID
 62
     7
 10
97.079330444
 20
-11.154148102
 30
0.000000000
 11
97.079330444
 21
64.152259827
 31
0.000000000
  0
LINE
  8
PLAIN_
  6
SOLID
 62
     7
 10
98.745826721
 20
-6.154148102
 30
0.000000000
 11
97.079330444
 21
3.845851898
 31
0.000000000
  0
LINE
  8
PLAIN_
  6
SOLID
 62
     7
 10
97.079330444
 20
3.845851898
 30
0.000000000
 11
95.412834167
 21
-6.154148102
 31
0.000000000
  0
LINE
  8
PLAIN_
  6
SOLID
 62
     7
 10
95.412834167
 20
-6.154148102
 30
0.000000000
 11
98.745826721
 21
-6.154148102
 31
0.000000000
  0
LINE
  8
PLAIN_
  6
SOLID
 62
     7
 10
97.079330444
 20
19.845851898
 30
0.000000000
 11
97.079330444
 21
64.152259827
 31
0.000000000
  0
LINE
  8
PLAIN_
  6
SOLID
 62
     7
 10
97.079330444
 20
64.152259827
 30
0.000000000
 11
97.079330444
 21
-11.154148102
 31
0.000000000
  0
LINE
  8
PLAIN_
  6
SOLID
 62
     7
 10
95.412834167
 20
29.845851898
 30
0.000000000
 11
97.079330444
 21
19.845851898
 31
0.000000000
  0
LINE
  8
PLAIN_
  6
SOLID
 62
     7
 10
97.079330444
 20
19.845851898
 30
0.000000000
 11
98.745826721
 21
29.845851898
 31
0.000000000
  0
LINE
  8
PLAIN_
  6
SOLID
 62
     7
 10
98.745826721
 20
29.845851898
 30
0.000000000
 11
95.412834167
 21
29.845851898
 31
0.000000000
  0
TEXT
  8
PLAIN_
  6
SOLID
 62
     7
 10
92.079330444
 20
35.403808594
 30
0.000000000
 40
10.000000000
  1
M
 50
90.000002504
 41
0.666615391
  0
TEXT
  8
PLAIN_
  6
SOLID
 62
     7
 10
92.079330444
 20
44.237136841
 30
0.000000000
 40
10.000000000
  1
16
 50
90.000002504
 41
0.774923086
  0
ENDBLK
  0
BLOCK
  2
*D6
  8
PLAIN_
 70
    65
 10
0.000000000
 20
0.000000000
 30
0.000000000
  3
*D6
  0
LINE
  8
PLAIN_
  6
SOLID
 62
     7
 10
2.859344482
 20
138.524856567
 30
0.000000000
 11
2.859344482
 21
166.429916382
 31
0.000000000
  0
LINE
  8
PLAIN_
  6
SOLID
 62
     7
 10
7.859344482
 20
86.345848083
 30
0.000000000
 11
7.859344482
 21
166.429916382
 31
0.000000000
  0
LINE
  8
PLAIN_
  6
SOLID
 62
     7
 10
2.859344482
 20
165.929916382
 30
0.000000000
 11
-22.715766907
 21
165.929916382
 31
0.000000000
  0
LINE
  8
PLAIN_
  6
SOLID
 62
     7
 10
-22.715766907
 20
165.929916382
 30
0.000000000
 11
22.859344482
 21
165.929916382
 31
0.000000000
  0
LINE
  8
PLAIN_
  6
SOLID
 62
     7
 10
-7.140655994
 20
164.263412476
 30
0.000000000
 11
2.859344482
 21
165.929916382
 31
0.000000000
  0
LINE
  8
PLAIN_
  6
SOLID
 62
     7
 10
2.859344482
 20
165.929916382
 30
0.000000000
 11
-7.140655994
 21
167.596420288
 31
0.000000000
  0
LINE
  8
PLAIN_
  6
SOLID
 62
     7
 10
-7.140655994
 20
167.596420288
 30
0.000000000
 11
-7.140655994
 21
164.263412476
 31
0.000000000
  0
LINE
  8
PLAIN_
  6
SOLID
 62
     7
 10
7.859344482
 20
165.929916382
 30
0.000000000
 11
22.859344482
 21
165.929916382
 31
0.000000000
  0
LINE
  8
PLAIN_
  6
SOLID
 62
     7
 10
22.859344482
 20
165.929916382
 30
0.000000000
 11
-22.715766907
 21
165.929916382
 31
0.000000000
  0
LINE
  8
PLAIN_
  6
SOLID
 62
     7
 10
17.859344482
 20
167.596420288
 30
0.000000000
 11
7.859344482
 21
165.929916382
 31
0.000000000
  0
LINE
  8
PLAIN_
  6
SOLID
 62
     7
 10
7.859344482
 20
165.929916382
 30
0.000000000
 11
17.859344482
 21
164.263412476
 31
0.000000000
  0
LINE
  8
PLAIN_
  6
SOLID
 62
     7
 10
17.859344482
 20
164.263412476
 30
0.000000000
 11
17.859344482
 21
167.596420288
 31
0.000000000
  0
TEXT
  8
PLAIN_
  6
SOLID
 62
     7
 10
-18.299102783
 20
170.929916382
 30
0.000000000
 40
10.000000000
  1
5
 50
0.000000000
 41
0.583230782
  0
ENDBLK
  0
BLOCK
  2
*D7
  8
PLAIN_
 70
    65
 10
0.000000000
 20
0.000000000
 30
0.000000000
  3
*D7
  0
LINE
  8
PLAIN_
  6
SOLID
 62
     7
 10
488.981964111
 20
11.845850945
 30
0.000000000
 11
505.504364014
 21
11.845851898
 31
0.000000000
  0
LINE
  8
PLAIN_
  6
SOLID
 62
     7
 10
402.313385010
 20
134.870681763
 30
0.000000000
 11
505.504364014
 21
134.870681763
 31
0.000000000
  0
LINE
  8
PLAIN_
  6
SOLID
 62
     7
 10
505.004364014
 20
11.845851898
 30
0.000000000
 11
505.004364014
 21
134.870681763
 31
0.000000000
  0
LINE
  8
PLAIN_
  6
SOLID
 62
     7
 10
503.337860107
 20
21.845851898
 30
0.000000000
 11
505.004364014
 21
11.845851898
 31
0.000000000
  0
LINE
  8
PLAIN_
  6
SOLID
 62
     7
 10
505.004364014
 20
11.845851898
 30
0.000000000
 11
506.670867920
 21
21.845851898
 31
0.000000000
  0
LINE
  8
PLAIN_
  6
SOLID
 62
     7
 10
506.670867920
 20
21.845851898
 30
0.000000000
 11
503.337860107
 21
21.845851898
 31
0.000000000
  0
LINE
  8
PLAIN_
  6
SOLID
 62
     7
 10
505.004364014
 20
134.870681763
 30
0.000000000
 11
505.004364014
 21
11.845851898
 31
0.000000000
  0
LINE
  8
PLAIN_
  6
SOLID
 62
     7
 10
506.670867920
 20
124.870681763
 30
0.000000000
 11
505.004364014
 21
134.870681763
 31
0.000000000
  0
LINE
  8
PLAIN_
  6
SOLID
 62
     7
 10
505.004364014
 20
134.870681763
 30
0.000000000
 11
503.337860107
 21
124.870681763
 31
0.000000000
  0
LINE
  8
PLAIN_
  6
SOLID
 62
     7
 10
503.337860107
 20
124.870681763
 30
0.000000000
 11
506.670867920
 21
124.870681763
 31
0.000000000
  0
TEXT
  8
PLAIN_
  6
SOLID
 62
     7
 10
500.004364014
 20
64.051963806
 30
0.000000000
 40
10.000000000
  1
123
 50
90.000002504
 41
0.783230782
  0
ENDBLK
  0
BLOCK
  2
*L3
  8
PLAIN_
 70
    65
 10
0.000000000
 20
0.000000000
 30
0.000000000
  3
*L3
  0
LINE
  8
PLAIN_
  6
SOLID
 62
     7
 10
395.082427979
 20
104.779838562
 30
0.000000000
 11
444.047637939
 21
232.538909912
 31
0.000000000
  0
LINE
  8
PLAIN_
  6
SOLID
 62
     7
 10
444.047637939
 20
232.538909912
 30
0.000000000
 11
411.475219727
 21
232.538909912
 31
0.000000000
  0
LINE
  8
PLAIN_
  6
SOLID
 62
     7
 10
397.105072021
 20
114.713928223
 30
0.000000000
 11
395.082427979
 21
104.779838562
 31
0.000000000
  0
LINE
  8
PLAIN_
  6
SOLID
 62
     7
 10
395.082427979
 20
104.779838562
 30
0.000000000
 11
400.217315674
 21
113.521118164
 31
0.000000000
  0
LINE
  8
PLAIN_
  6
SOLID
 62
     7
 10
400.217315674
 20
113.521118164
 30
0.000000000
 11
397.105072021
 21
114.713928223
 31
0.000000000
  0
TEXT
  8
PLAIN_
  6
SOLID
 62
     7
 10
337.123565674
 20
233.688308716
 30
0.000000000
 40
10.000000000
  1
N%%d2 HOLES
 50
0.000000000
 41
0.761733670
  0
TEXT
  8
PLAIN_
  6
SOLID
 62
     7
 10
337.123565674
 20
218.688308716
 30
0.000000000
 40
10.000000000
  1
1/2" BSP
 50
0.000000000
 41
0.705902672
  0
ENDBLK
  0
BLOCK
  2
*D8
  8
PLAIN_
 70
    65
 10
0.000000000
 20
0.000000000
 30
0.000000000
  3
*D8
  0
LINE
  8
PLAIN_
  6
SOLID
 62
     7
 10
-17.140655518
 20
-133.418640137
 30
0.000000000
 11
-17.140655518
 21
-155.909057617
 31
0.000000000
  0
LINE
  8
PLAIN_
  6
SOLID
 62
     7
 10
2.859344482
 20
-132.894927979
 30
0.000000000
 11
2.859344482
 21
-155.909057617
 31
0.000000000
  0
LINE
  8
PLAIN_
  6
SOLID
 62
     7
 10
-17.140655518
 20
-155.194778442
 30
0.000000000
 11
-32.140655518
 21
-155.194778442
 31
0.000000000
  0
LINE
  8
PLAIN_
  6
SOLID
 62
     7
 10
-32.140655518
 20
-155.194778442
 30
0.000000000
 11
17.859344482
 21
-155.194778442
 31
0.000000000
  0
LINE
  8
PLAIN_
  6
SOLID
 62
     7
 10
-27.140655518
 20
-156.861282349
 30
0.000000000
 11
-17.140655518
 21
-155.194778442
 31
0.000000000
  0
LINE
  8
PLAIN_
  6
SOLID
 62
     7
 10
-17.140655518
 20
-155.194778442
 30
0.000000000
 11
-27.140655518
 21
-153.528274536
 31
0.000000000
  0
LINE
  8
PLAIN_
  6
SOLID
 62
     7
 10
-27.140655518
 20
-153.528274536
 30
0.000000000
 11
-27.140655518
 21
-156.861282349
 31
0.000000000
  0
LINE
  8
PLAIN_
  6
SOLID
 62
     7
 10
2.859344482
 20
-155.194778442
 30
0.000000000
 11
17.859344482
 21
-155.194778442
 31
0.000000000
  0
LINE
  8
PLAIN_
  6
SOLID
 62
     7
 10
17.859344482
 20
-155.194778442
 30
0.000000000
 11
-32.140655518
 21
-155.194778442
 31
0.000000000
  0
LINE
  8
PLAIN_
  6
SOLID
 62
     7
 10
12.859344482
 20
-153.528274536
 30
0.000000000
 11
2.859344482
 21
-155.194778442
 31
0.000000000
  0
LINE
  8
PLAIN_
  6
SOLID
 62
     7
 10
2.859344482
 20
-155.194778442
 30
0.000000000
 11
12.859344482
 21
-156.861282349
 31
0.000000000
  0
LINE
  8
PLAIN_
  6
SOLID
 62
     7
 10
12.859344482
 20
-156.861282349
 30
0.000000000
 11
12.859344482
 21
-153.528274536
 31
0.000000000
  0
TEXT
  8
PLAIN_
  6
SOLID
 62
     7
 10
-14.358865738
 20
-150.194778442
 30
0.000000000
 40
10.000000000
  1
20
 50
0.000000000
 41
0.733230782
  0
ENDBLK
  0
BLOCK
  2
*D9
  8
PLAIN_
 70
    65
 10
0.000000000
 20
0.000000000
 30
0.000000000
  3
*D9
  0
LINE
  8
PLAIN_
  6
SOLID
 62
     7
 10
-116.170242310
 20
-138.136657715
 30
0.000000000
 11
-299.843261719
 21
-138.136657715
 31
0.000000000
  0
LINE
  8
PLAIN_
  6
SOLID
 62
     7
 10
-117.553283691
 20
161.828369141
 30
0.000000000
 11
-299.843261719
 21
161.828369141
 31
0.000000000
  0
LINE
  8
PLAIN_
  6
SOLID
 62
     7
 10
-299.128967285
 20
-138.136657715
 30
0.000000000
 11
-299.128967285
 21
161.828369141
 31
0.000000000
  0
LINE
  8
PLAIN_
  6
SOLID
 62
     7
 10
-300.795471191
 20
-128.136657715
 30
0.000000000
 11
-299.128967285
 21
-138.136657715
 31
0.000000000
  0
LINE
  8
PLAIN_
  6
SOLID
 62
     7
 10
-299.128967285
 20
-138.136657715
 30
0.000000000
 11
-297.462463379
 21
-128.136657715
 31
0.000000000
  0
LINE
  8
PLAIN_
  6
SOLID
 62
     7
 10
-297.462463379
 20
-128.136657715
 30
0.000000000
 11
-300.795471191
 21
-128.136657715
 31
0.000000000
  0
LINE
  8
PLAIN_
  6
SOLID
 62
     7
 10
-299.128967285
 20
161.828369141
 30
0.000000000
 11
-299.128967285
 21
-138.136657715
 31
0.000000000
  0
LINE
  8
PLAIN_
  6
SOLID
 62
     7
 10
-297.462463379
 20
151.828369141
 30
0.000000000
 11
-299.128967285
 21
161.828369141
 31
0.000000000
  0
LINE
  8
PLAIN_
  6
SOLID
 62
     7
 10
-299.128967285
 20
161.828369141
 30
0.000000000
 11
-300.795471191
 21
151.828369141
 31
0.000000000
  0
LINE
  8
PLAIN_
  6
SOLID
 62
     7
 10
-300.795471191
 20
151.828369141
 30
0.000000000
 11
-297.462463379
 21
151.828369141
 31
0.000000000
  0
TEXT
  8
PLAIN_
  6
SOLID
 62
     7
 10
-304.128967285
 20
-17.198158264
 30
0.000000000
 40
10.000000000
  1
%%c
 50
90.000002504
 41
0.666615391
  0
TEXT
  8
PLAIN_
  6
SOLID
 62
     7
 10
-304.128967285
 20
-8.364828110
 30
0.000000000
 40
10.000000000
  1
300
 50
90.000002504
 41
0.783230782
  0
TEXT
  8
PLAIN_
  6
SOLID
 62
     7
 10
-314.628967285
 20
21.135162354
 30
0.000000000
 40
7.000000000
  1
+0.0
 50
90.000002504
 41
0.808230809
  0
TEXT
  8
PLAIN_
  6
SOLID
 62
     7
 10
-299.628967285
 20
21.135162354
 30
0.000000000
 40
7.000000000
  1
+2.0
 50
90.000002504
 41
0.808230809
  0
ENDBLK
  0
BLOCK
  2
*D10
  8
PLAIN_
 70
    65
 10
0.000000000
 20
0.000000000
 30
0.000000000
  3
*D10
  0
LINE
  8
PLAIN_
  6
SOLID
 62
     7
 10
13.919196129
 20
-113.154144287
 30
0.000000000
 11
148.962600708
 21
-113.154144287
 31
0.000000000
  0
LINE
  8
PLAIN_
  6
SOLID
 62
     7
 10
148.248321533
 20
-113.154144287
 30
0.000000000
 11
148.248321533
 21
44.124328613
 31
0.000000000
  0
LINE
  8
PLAIN_
  6
SOLID
 62
     7
 10
146.581817627
 20
-103.154151917
 30
0.000000000
 11
148.248321533
 21
-113.154144287
 31
0.000000000
  0
LINE
  8
PLAIN_
  6
SOLID
 62
     7
 10
148.248321533
 20
-113.154144287
 30
0.000000000
 11
149.914825439
 21
-103.154151917
 31
0.000000000
  0
LINE
  8
PLAIN_
  6
SOLID
 62
     7
 10
149.914825439
 20
-103.154151917
 30
0.000000000
 11
146.581817627
 21
-103.154151917
 31
0.000000000
  0
LINE
  8
PLAIN_
  6
SOLID
 62
     7
 10
148.248321533
 20
44.124328613
 30
0.000000000
 11
148.248321533
 21
-113.154144287
 31
0.000000000
  0
TEXT
  8
PLAIN_
  6
SOLID
 62
     7
 10
143.248321533
 20
-43.021472931
 30
0.000000000
 40
10.000000000
  1
%%c
 50
90.000002504
 41
0.666615391
  0
TEXT
  8
PLAIN_
  6
SOLID
 62
     7
 10
143.248321533
 20
-34.188144684
 30
0.000000000
 40
10.000000000
  1
250
 50
90.000002504
 41
0.783230782
  0
ENDBLK
  0
BLOCK
  2
*D11
  8
PLAIN_
 70
    65
 10
0.000000000
 20
0.000000000
 30
0.000000000
  3
*D11
  0
LINE
  8
PLAIN_
  6
SOLID
 62
     7
 10
7.573630333
 20
-63.154148102
 30
0.000000000
 11
122.540931702
 21
-63.154148102
 31
0.000000000
  0
LINE
  8
PLAIN_
  6
SOLID
 62
     7
 10
3.573630333
 20
86.845848083
 30
0.000000000
 11
122.540931702
 21
86.845855713
 31
0.000000000
  0
LINE
  8
PLAIN_
  6
SOLID
 62
     7
 10
121.826644897
 20
-63.154148102
 30
0.000000000
 11
121.826644897
 21
86.845855713
 31
0.000000000
  0
LINE
  8
PLAIN_
  6
SOLID
 62
     7
 10
120.160148621
 20
-53.154148102
 30
0.000000000
 11
121.826644897
 21
-63.154148102
 31
0.000000000
  0
LINE
  8
PLAIN_
  6
SOLID
 62
     7
 10
121.826644897
 20
-63.154148102
 30
0.000000000
 11
123.493141174
 21
-53.154148102
 31
0.000000000
  0
LINE
  8
PLAIN_
  6
SOLID
 62
     7
 10
123.493141174
 20
-53.154148102
 30
0.000000000
 11
120.160148621
 21
-53.154148102
 31
0.000000000
  0
LINE
  8
PLAIN_
  6
SOLID
 62
     7
 10
121.826644897
 20
86.845855713
 30
0.000000000
 11
121.826644897
 21
-63.154148102
 31
0.000000000
  0
LINE
  8
PLAIN_
  6
SOLID
 62
     7
 10
123.493141174
 20
76.845855713
 30
0.000000000
 11
121.826644897
 21
86.845855713
 31
0.000000000
  0
LINE
  8
PLAIN_
  6
SOLID
 62
     7
 10
121.826644897
 20
86.845855713
 30
0.000000000
 11
120.160148621
 21
76.845855713
 31
0.000000000
  0
LINE
  8
PLAIN_
  6
SOLID
 62
     7
 10
120.160148621
 20
76.845855713
 30
0.000000000
 11
123.493141174
 21
76.845855713
 31
0.000000000
  0
TEXT
  8
PLAIN_
  6
SOLID
 62
     7
 10
116.826644897
 20
-6.454659462
 30
0.000000000
 40
10.000000000
  1
%%c
 50
90.000002504
 41
0.666615391
  0
TEXT
  8
PLAIN_
  6
SOLID
 62
     7
 10
116.826644897
 20
2.378670454
 30
0.000000000
 40
10.000000000
  1
150
 50
90.000002504
 41
0.783230782
  0
TEXT
  8
PLAIN_
  6
SOLID
 62
     7
 10
116.826644897
 20
28.878660202
 30
0.000000000
 40
10.000000000
  1
f7
 50
90.000002504
 41
0.733230782
  0
ENDBLK
  0
BLOCK
  2
*D12
  8
PLAIN_
 70
    65
 10
0.000000000
 20
0.000000000
 30
0.000000000
  3
*D12
  0
LINE
  8
PLAIN_
  6
SOLID
 62
     7
 10
-156.640670776
 20
92.560134888
 30
0.000000000
 11
-156.640670776
 21
185.960479736
 31
0.000000000
  0
LINE
  8
PLAIN_
  6
SOLID
 62
     7
 10
2.859344482
 20
138.739135742
 30
0.000000000
 11
2.859344482
 21
185.960479736
 31
0.000000000
  0
LINE
  8
PLAIN_
  6
SOLID
 62
     7
 10
-156.640670776
 20
185.246200562
 30
0.000000000
 11
2.859344482
 21
185.246200562
 31
0.000000000
  0
LINE
  8
PLAIN_
  6
SOLID
 62
     7
 10
-146.640670776
 20
186.912704468
 30
0.000000000
 11
-156.640670776
 21
185.246200562
 31
0.000000000
  0
LINE
  8
PLAIN_
  6
SOLID
 62
     7
 10
-156.640670776
 20
185.246200562
 30
0.000000000
 11
-146.640670776
 21
183.579696655
 31
0.000000000
  0
LINE
  8
PLAIN_
  6
SOLID
 62
     7
 10
-146.640670776
 20
183.579696655
 30
0.000000000
 11
-146.640670776
 21
186.912704468
 31
0.000000000
  0
LINE
  8
PLAIN_
  6
SOLID
 62
     7
 10
2.859344482
 20
185.246200562
 30
0.000000000
 11
-156.640670776
 21
185.246200562
 31
0.000000000
  0
LINE
  8
PLAIN_
  6
SOLID
 62
     7
 10
-7.140655994
 20
183.579696655
 30
0.000000000
 11
2.859344482
 21
185.246200562
 31
0.000000000
  0
LINE
  8
PLAIN_
  6
SOLID
 62
     7
 10
2.859344482
 20
185.246200562
 30
0.000000000
 11
-7.140655994
 21
186.912704468
 31
0.000000000
  0
LINE
  8
PLAIN_
  6
SOLID
 62
     7
 10
-7.140655994
 20
186.912704468
 30
0.000000000
 11
-7.140655994
 21
183.579696655
 31
0.000000000
  0
TEXT
  8
PLAIN_
  6
SOLID
 62
     7
 10
-97.154434204
 20
190.246200562
 30
0.000000000
 40
10.000000000
  1
159.5
 50
0.000000000
 41
0.823230743
  0
ENDBLK
  0
BLOCK
  2
*D13
  8
PLAIN_
 70
    65
 10
0.000000000
 20
0.000000000
 30
0.000000000
  3
*D13
  0
LINE
  8
PLAIN_
  6
SOLID
 62
     7
 10
208.890319824
 20
-26.981704712
 30
0.000000000
 11
155.549606323
 21
-44.313152313
 31
0.000000000
  0
LINE
  8
PLAIN_
  6
SOLID
 62
     7
 10
161.150726318
 20
-52.955448151
 30
0.000000000
 11
156.228927612
 21
-44.092426300
 31
0.000000000
  0
LINE
  8
PLAIN_
  6
SOLID
 62
     7
 10
156.228927612
 20
-44.092426300
 30
0.000000000
 11
158.010498047
 21
-54.072566986
 31
0.000000000
  0
LINE
  8
PLAIN_
  6
SOLID
 62
     7
 10
158.010498047
 20
-54.072566986
 30
0.000000000
 11
161.150726318
 21
-52.955448151
 31
0.000000000
  0
LINE
  8
PLAIN_
  6
SOLID
 62
     7
 10
213.047103882
 20
-129.823959351
 30
0.000000000
 11
221.988235474
 21
-134.602355957
 31
0.000000000
  0
LINE
  8
PLAIN_
  6
SOLID
 62
     7
 10
221.988235474
 20
-134.602355957
 30
0.000000000
 11
215.079910278
 21
-127.182640076
 31
0.000000000
  0
LINE
  8
PLAIN_
  6
SOLID
 62
     7
 10
215.079910278
 20
-127.182640076
 30
0.000000000
 11
213.047103882
 21
-129.823959351
 31
0.000000000
  0
ARC
  8
PLAIN_
  6
SOLID
 62
     7
 10
328.389068604
 20
11.845789909
 30
0.000000000
 40
181.019882202
 50
197.999998644
 51
233.999989176
  0
ARC
  8
PLAIN_
  6
SOLID
 62
     7
 10
328.389068604
 20
11.845789909
 30
0.000000000
 40
181.019882202
 50
198.000003581
 51
233.999993084
  0
TEXT
  8
PLAIN_
  6
SOLID
 62
     7
 10
179.696960449
 20
-82.354309082
 30
0.000000000
 40
10.000000000
  1
36%%d
 50
-54.225384085
 41
0.699897448
  0
ENDBLK
  0
BLOCK
  2
*D14
  8
PLAIN_
 70
    65
 10
0.000000000
 20
0.000000000
 30
0.000000000
  3
*D14
  0
LINE
  8
PLAIN_
  6
SOLID
 62
     7
 10
321.389190674
 20
-132.698196411
 30
0.000000000
 11
321.389190674
 21
-180.150405884
 31
0.000000000
  0
LINE
  8
PLAIN_
  6
SOLID
 62
     7
 10
335.389190674
 20
-132.698196411
 30
0.000000000
 11
335.389190674
 21
-180.150405884
 31
0.000000000
  0
LINE
  8
PLAIN_
  6
SOLID
 62
     7
 10
321.389190674
 20
-179.436126709
 30
0.000000000
 11
275.590423584
 21
-179.436126709
 31
0.000000000
  0
LINE
  8
PLAIN_
  6
SOLID
 62
     7
 10
275.590423584
 20
-179.436126709
 30
0.000000000
 11
350.389190674
 21
-179.436126709
 31
0.000000000
  0
LINE
  8
PLAIN_
  6
SOLID
 62
     7
 10
311.389190674
 20
-181.102630615
 30
0.000000000
 11
321.389190674
 21
-179.436126709
 31
0.000000000
  0
LINE
  8
PLAIN_
  6
SOLID
 62
     7
 10
321.389190674
 20
-179.436126709
 30
0.000000000
 11
311.389190674
 21
-177.769622803
 31
0.000000000
  0
LINE
  8
PLAIN_
  6
SOLID
 62
     7
 10
311.389190674
 20
-177.769622803
 30
0.000000000
 11
311.389190674
 21
-181.102630615
 31
0.000000000
  0
LINE
  8
PLAIN_
  6
SOLID
 62
     7
 10
335.389190674
 20
-179.436126709
 30
0.000000000
 11
350.389190674
 21
-179.436126709
 31
0.000000000
  0
LINE
  8
PLAIN_
  6
SOLID
 62
     7
 10
350.389190674
 20
-179.436126709
 30
0.000000000
 11
275.590423584
 21
-179.436126709
 31
0.000000000
  0
LINE
  8
PLAIN_
  6
SOLID
 62
     7
 10
345.389190674
 20
-177.769622803
 30
0.000000000
 11
335.389190674
 21
-179.436126709
 31
0.000000000
  0
LINE
  8
PLAIN_
  6
SOLID
 62
     7
 10
335.389190674
 20
-179.436126709
 30
0.000000000
 11
345.389190674
 21
-181.102630615
 31
0.000000000
  0
LINE
  8
PLAIN_
  6
SOLID
 62
     7
 10
345.389190674
 20
-181.102630615
 30
0.000000000
 11
345.389190674
 21
-177.769622803
 31
0.000000000
  0
TEXT
  8
PLAIN_
  6
SOLID
 62
     7
 10
280.007080078
 20
-174.436126709
 30
0.000000000
 40
10.000000000
  1
14
 50
0.000000000
 41
0.733230782
  0
ENDBLK
  0
BLOCK
  2
*D15
  8
PLAIN_
 70
    65
 10
0.000000000
 20
0.000000000
 30
0.000000000
  3
*D15
  0
LINE
  8
PLAIN_
  6
SOLID
 62
     7
 10
328.389251709
 20
184.679138184
 30
0.000000000
 11
328.389251709
 21
198.584762573
 31
0.000000000
  0
LINE
  8
PLAIN_
  6
SOLID
 62
     7
 10
164.014968872
 20
65.254302979
 30
0.000000000
 11
150.790008545
 21
69.551353455
 31
0.000000000
  0
LINE
  8
PLAIN_
  6
SOLID
 62
     7
 10
318.437561035
 20
196.317306519
 30
0.000000000
 11
328.389251709
 21
198.251434326
 31
0.000000000
  0
LINE
  8
PLAIN_
  6
SOLID
 62
     7
 10
328.389251709
 20
198.251434326
 30
0.000000000
 11
318.348144531
 21
199.649093628
 31
0.000000000
  0
LINE
  8
PLAIN_
  6
SOLID
 62
     7
 10
318.348144531
 20
199.649093628
 30
0.000000000
 11
318.437561035
 21
196.317306519
 31
0.000000000
  0
LINE
  8
PLAIN_
  6
SOLID
 62
     7
 10
152.880630493
 20
79.429908752
 30
0.000000000
 11
151.107025146
 21
69.448348999
 31
0.000000000
  0
LINE
  8
PLAIN_
  6
SOLID
 62
     7
 10
151.107025146
 20
69.448348999
 30
0.000000000
 11
156.021743774
 21
78.315299988
 31
0.000000000
  0
LINE
  8
PLAIN_
  6
SOLID
 62
     7
 10
156.021743774
 20
78.315299988
 30
0.000000000
 11
152.880630493
 21
79.429908752
 31
0.000000000
  0
ARC
  8
PLAIN_
  6
SOLID
 62
     7
 10
328.389251709
 20
11.845850945
 30
0.000000000
 40
186.405578613
 50
90.000000000
 51
161.999996828
  0
ARC
  8
PLAIN_
  6
SOLID
 62
     7
 10
328.389251709
 20
11.845850945
 30
0.000000000
 40
186.405578613
 50
90.000000000
 51
161.999996828
  0
TEXT
  8
PLAIN_
  6
SOLID
 62
     7
 10
211.141677856
 20
163.501098633
 30
0.000000000
 40
10.000000000
  1
72%%d
 50
34.568806578
 41
0.699897448
  0
ENDBLK
  0
BLOCK
  2
*L4
  8
PLAIN_
 70
    65
 10
0.000000000
 20
0.000000000
 30
0.000000000
  3
*L4
  0
LINE
  8
PLAIN_
  6
SOLID
 62
     7
 10
341.339294434
 20
-118.454429626
 30
0.000000000
 11
450.042877197
 21
-205.320358276
 31
0.000000000
  0
LINE
  8
PLAIN_
  6
SOLID
 62
     7
 10
450.042877197
 20
-205.320358276
 30
0.000000000
 11
419.216552734
 21
-205.320358276
 31
0.000000000
  0
LINE
  8
PLAIN_
  6
SOLID
 62
     7
 10
350.191711426
 20
-123.395248413
 30
0.000000000
 11
341.339294434
 21
-118.454429626
 31
0.000000000
  0
LINE
  8
PLAIN_
  6
SOLID
 62
     7
 10
341.339294434
 20
-118.454429626
 30
0.000000000
 11
348.111022949
 21
-125.999008179
 31
0.000000000
  0
LINE
  8
PLAIN_
  6
SOLID
 62
     7
 10
348.111022949
 20
-125.999008179
 30
0.000000000
 11
350.191711426
 21
-123.395248413
 31
0.000000000
  0
TEXT
  8
PLAIN_
  6
SOLID
 62
     7
 10
284.731964111
 20
-210.320358276
 30
0.000000000
 40
10.000000000
  1
TO USE BOLT M12
 50
0.000000000
 41
0.863230693
  0
ENDBLK
  0
BLOCK
  2
*D16
  8
PLAIN_
 70
    65
 10
0.000000000
 20
0.000000000
 30
0.000000000
  3
*D16
  0
LINE
  8
PLAIN_
  6
SOLID
 62
     7
 10
-166.640670776
 20
74.345848083
 30
0.000000000
 11
-166.640670776
 21
123.096343994
 31
0.000000000
  0
LINE
  8
PLAIN_
  6
SOLID
 62
     7
 10
-156.640670776
 20
92.345848083
 30
0.000000000
 11
-156.640670776
 21
123.096343994
 31
0.000000000
  0
LINE
  8
PLAIN_
  6
SOLID
 62
     7
 10
-166.640670776
 20
122.596343994
 30
0.000000000
 11
-205.780273438
 21
122.596343994
 31
0.000000000
  0
LINE
  8
PLAIN_
  6
SOLID
 62
     7
 10
-205.780273438
 20
122.596343994
 30
0.000000000
 11
-141.640670776
 21
122.596343994
 31
0.000000000
  0
LINE
  8
PLAIN_
  6
SOLID
 62
     7
 10
-176.640670776
 20
120.929847717
 30
0.000000000
 11
-166.640670776
 21
122.596343994
 31
0.000000000
  0
LINE
  8
PLAIN_
  6
SOLID
 62
     7
 10
-166.640670776
 20
122.596343994
 30
0.000000000
 11
-176.640670776
 21
124.262840271
 31
0.000000000
  0
LINE
  8
PLAIN_
  6
SOLID
 62
     7
 10
-176.640670776
 20
124.262840271
 30
0.000000000
 11
-176.640670776
 21
120.929847717
 31
0.000000000
  0
LINE
  8
PLAIN_
  6
SOLID
 62
     7
 10
-156.640670776
 20
122.596343994
 30
0.000000000
 11
-141.640670776
 21
122.596343994
 31
0.000000000
  0
LINE
  8
PLAIN_
  6
SOLID
 62
     7
 10
-141.640670776
 20
122.596343994
 30
0.000000000
 11
-205.780273438
 21
122.596343994
 31
0.000000000
  0
LINE
  8
PLAIN_
  6
SOLID
 62
     7
 10
-146.640670776
 20
124.262840271
 30
0.000000000
 11
-156.640670776
 21
122.596343994
 31
0.000000000
  0
LINE
  8
PLAIN_
  6
SOLID
 62
     7
 10
-156.640670776
 20
122.596343994
 30
0.000000000
 11
-146.640670776
 21
120.929847717
 31
0.000000000
  0
LINE
  8
PLAIN_
  6
SOLID
 62
     7
 10
-146.640670776
 20
120.929847717
 30
0.000000000
 11
-146.640670776
 21
124.262840271
 31
0.000000000
  0
TEXT
  8
PLAIN_
  6
SOLID
 62
     7
 10
-201.363616943
 20
127.596343994
 30
0.000000000
 40
10.000000000
  1
10
 50
0.000000000
 41
0.733230782
  0
ENDBLK
  0
BLOCK
  2
*L5
  8
PLAIN_
 70
    65
 10
0.000000000
 20
0.000000000
 30
0.000000000
  3
*L5
  0
LINE
  8
PLAIN_
  6
SOLID
 62
     7
 10
-199.829772949
 20
-54.836383820
 30
0.000000000
 11
-242.290313721
 21
-80.929435730
 31
0.000000000
  0
LINE
  8
PLAIN_
  6
SOLID
 62
     7
 10
-242.290313721
 20
-80.929435730
 30
0.000000000
 11
-242.294006348
 21
-95.933059692
 31
0.000000000
  0
LINE
  8
PLAIN_
  6
SOLID
 62
     7
 10
-205.947647095
 20
-60.160778046
 30
0.000000000
 11
-199.829772949
 21
-54.836383820
 31
0.000000000
  0
LINE
  8
PLAIN_
  6
SOLID
 62
     7
 10
-199.829772949
 20
-54.836383820
 30
0.000000000
 11
-207.343673706
 21
-57.889041901
 31
0.000000000
  0
LINE
  8
PLAIN_
  6
SOLID
 62
     7
 10
-207.343673706
 20
-57.889041901
 30
0.000000000
 11
-205.947647095
 21
-60.160778046
 31
0.000000000
  0
TEXT
  8
PLAIN_
  6
SOLID
 62
     7
 10
-269.716430664
 20
-110.762031555
 30
0.000000000
 40
8.000000000
  1
N%%d2 HOLES
 50
0.000000000
 41
0.761733638
  0
TEXT
  8
PLAIN_
  6
SOLID
 62
     7
 10
-269.716430664
 20
-122.762031555
 30
0.000000000
 40
8.000000000
  1
1" BSP
 50
0.000000000
 41
0.730177800
  0
ENDBLK
  0
BLOCK
  2
*D17
  8
PLAIN_
 70
    65
 10
0.000000000
 20
0.000000000
 30
0.000000000
  3
*D17
  0
LINE
  8
PLAIN_
  6
SOLID
 62
     7
 10
-207.640670776
 20
-56.654148102
 30
0.000000000
 11
-207.640670776
 21
-175.089736938
 31
0.000000000
  0
LINE
  8
PLAIN_
  6
SOLID
 62
     7
 10
2.859344482
 20
-132.680648804
 30
0.000000000
 11
2.859344482
 21
-175.089736938
 31
0.000000000
  0
LINE
  8
PLAIN_
  6
SOLID
 62
     7
 10
-207.640670776
 20
-174.589736938
 30
0.000000000
 11
2.859344482
 21
-174.589736938
 31
0.000000000
  0
LINE
  8
PLAIN_
  6
SOLID
 62
     7
 10
-197.640670776
 20
-172.923233032
 30
0.000000000
 11
-207.640670776
 21
-174.589736938
 31
0.000000000
  0
LINE
  8
PLAIN_
  6
SOLID
 62
     7
 10
-207.640670776
 20
-174.589736938
 30
0.000000000
 11
-197.640670776
 21
-176.256240845
 31
0.000000000
  0
LINE
  8
PLAIN_
  6
SOLID
 62
     7
 10
-197.640670776
 20
-176.256240845
 30
0.000000000
 11
-197.640670776
 21
-172.923233032
 31
0.000000000
  0
LINE
  8
PLAIN_
  6
SOLID
 62
     7
 10
2.859344482
 20
-174.589736938
 30
0.000000000
 11
-207.640670776
 21
-174.589736938
 31
0.000000000
  0
LINE
  8
PLAIN_
  6
SOLID
 62
     7
 10
-7.140651226
 20
-176.256240845
 30
0.000000000
 11
2.859344482
 21
-174.589736938
 31
0.000000000
  0
LINE
  8
PLAIN_
  6
SOLID
 62
     7
 10
2.859344482
 20
-174.589736938
 30
0.000000000
 11
-7.140651226
 21
-172.923233032
 31
0.000000000
  0
LINE
  8
PLAIN_
  6
SOLID
 62
     7
 10
-7.140651226
 20
-172.923233032
 30
0.000000000
 11
-7.140651226
 21
-176.256240845
 31
0.000000000
  0
TEXT
  8
PLAIN_
  6
SOLID
 62
     7
 10
-121.550842285
 20
-169.589736938
 30
0.000000000
 40
10.000000000
  1
210.5
 50
0.000000000
 41
0.823230743
  0
ENDBLK
  0
BLOCK
  2
*D18
  8
PLAIN_
 70
    65
 10
0.000000000
 20
0.000000000
 30
0.000000000
  3
*D18
  0
LINE
  8
PLAIN_
  6
SOLID
 62
     7
 10
-243.640701294
 20
28.345851898
 30
0.000000000
 11
-243.640701294
 21
238.976989746
 31
0.000000000
  0
LINE
  8
PLAIN_
  6
SOLID
 62
     7
 10
74.859344482
 20
28.845851898
 30
0.000000000
 11
74.859359741
 21
238.976989746
 31
0.000000000
  0
LINE
  8
PLAIN_
  6
SOLID
 62
     7
 10
-243.640701294
 20
238.476989746
 30
0.000000000
 11
74.859359741
 21
238.476989746
 31
0.000000000
  0
LINE
  8
PLAIN_
  6
SOLID
 62
     7
 10
-233.640701294
 20
240.143493652
 30
0.000000000
 11
-243.640701294
 21
238.476989746
 31
0.000000000
  0
LINE
  8
PLAIN_
  6
SOLID
 62
     7
 10
-243.640701294
 20
238.476989746
 30
0.000000000
 11
-233.640701294
 21
236.810485840
 31
0.000000000
  0
LINE
  8
PLAIN_
  6
SOLID
 62
     7
 10
-233.640701294
 20
236.810485840
 30
0.000000000
 11
-233.640701294
 21
240.143493652
 31
0.000000000
  0
LINE
  8
PLAIN_
  6
SOLID
 62
     7
 10
74.859359741
 20
238.476989746
 30
0.000000000
 11
-243.640701294
 21
238.476989746
 31
0.000000000
  0
LINE
  8
PLAIN_
  6
SOLID
 62
     7
 10
64.859359741
 20
236.810485840
 30
0.000000000
 11
74.859359741
 21
238.476989746
 31
0.000000000
  0
LINE
  8
PLAIN_
  6
SOLID
 62
     7
 10
74.859359741
 20
238.476989746
 30
0.000000000
 11
64.859359741
 21
240.143493652
 31
0.000000000
  0
LINE
  8
PLAIN_
  6
SOLID
 62
     7
 10
64.859359741
 20
240.143493652
 30
0.000000000
 11
64.859359741
 21
236.810485840
 31
0.000000000
  0
TEXT
  8
PLAIN_
  6
SOLID
 62
     7
 10
-102.536071777
 20
243.476989746
 30
0.000000000
 40
10.000000000
  1
318.5
 50
0.000000000
 41
0.823230743
  0
ENDBLK
  0
BLOCK
  2
*D19
  8
PLAIN_
 70
    65
 10
0.000000000
 20
0.000000000
 30
0.000000000
  3
*D19
  0
LINE
  8
PLAIN_
  6
SOLID
 62
     7
 10
-243.640701294
 20
28.345851898
 30
0.000000000
 11
-243.640701294
 21
210.653030396
 31
0.000000000
  0
LINE
  8
PLAIN_
  6
SOLID
 62
     7
 10
2.859344482
 20
138.524856567
 30
0.000000000
 11
2.859344482
 21
210.653030396
 31
0.000000000
  0
LINE
  8
PLAIN_
  6
SOLID
 62
     7
 10
-243.640701294
 20
210.153030396
 30
0.000000000
 11
2.859344482
 21
210.153030396
 31
0.000000000
  0
LINE
  8
PLAIN_
  6
SOLID
 62
     7
 10
-233.640701294
 20
211.819534302
 30
0.000000000
 11
-243.640701294
 21
210.153030396
 31
0.000000000
  0
LINE
  8
PLAIN_
  6
SOLID
 62
     7
 10
-243.640701294
 20
210.153030396
 30
0.000000000
 11
-233.640701294
 21
208.486526489
 31
0.000000000
  0
LINE
  8
PLAIN_
  6
SOLID
 62
     7
 10
-233.640701294
 20
208.486526489
 30
0.000000000
 11
-233.640701294
 21
211.819534302
 31
0.000000000
  0
LINE
  8
PLAIN_
  6
SOLID
 62
     7
 10
2.859344482
 20
210.153030396
 30
0.000000000
 11
-243.640701294
 21
210.153030396
 31
0.000000000
  0
LINE
  8
PLAIN_
  6
SOLID
 62
     7
 10
-7.140653133
 20
208.486526489
 30
0.000000000
 11
2.859344482
 21
210.153030396
 31
0.000000000
  0
LINE
  8
PLAIN_
  6
SOLID
 62
     7
 10
2.859344482
 20
210.153030396
 30
0.000000000
 11
-7.140653133
 21
211.819534302
 31
0.000000000
  0
LINE
  8
PLAIN_
  6
SOLID
 62
     7
 10
-7.140653133
 20
211.819534302
 30
0.000000000
 11
-7.140653133
 21
208.486526489
 31
0.000000000
  0
TEXT
  8
PLAIN_
  6
SOLID
 62
     7
 10
-147.599334717
 20
215.153030396
 30
0.000000000
 40
10.000000000
  1
246.5
 50
0.000000000
 41
0.823230743
  0
ENDBLK
  0
BLOCK
  2
*D20
  8
PLAIN_
 70
    65
 10
0.000000000
 20
0.000000000
 30
0.000000000
  3
*D20
  0
LINE
  8
PLAIN_
  6
SOLID
 62
     7
 10
-243.640701294
 20
28.345851898
 30
0.000000000
 11
-243.640701294
 21
186.299514771
 31
0.000000000
  0
LINE
  8
PLAIN_
  6
SOLID
 62
     7
 10
-166.640670776
 20
77.345848083
 30
0.000000000
 11
-166.640670776
 21
186.299514771
 31
0.000000000
  0
LINE
  8
PLAIN_
  6
SOLID
 62
     7
 10
-243.640701294
 20
185.799514771
 30
0.000000000
 11
-166.640670776
 21
185.799514771
 31
0.000000000
  0
LINE
  8
PLAIN_
  6
SOLID
 62
     7
 10
-233.640701294
 20
187.466018677
 30
0.000000000
 11
-243.640701294
 21
185.799514771
 31
0.000000000
  0
LINE
  8
PLAIN_
  6
SOLID
 62
     7
 10
-243.640701294
 20
185.799514771
 30
0.000000000
 11
-233.640701294
 21
184.133010864
 31
0.000000000
  0
LINE
  8
PLAIN_
  6
SOLID
 62
     7
 10
-233.640701294
 20
184.133010864
 30
0.000000000
 11
-233.640701294
 21
187.466018677
 31
0.000000000
  0
LINE
  8
PLAIN_
  6
SOLID
 62
     7
 10
-166.640670776
 20
185.799514771
 30
0.000000000
 11
-243.640701294
 21
185.799514771
 31
0.000000000
  0
LINE
  8
PLAIN_
  6
SOLID
 62
     7
 10
-176.640670776
 20
184.133010864
 30
0.000000000
 11
-166.640670776
 21
185.799514771
 31
0.000000000
  0
LINE
  8
PLAIN_
  6
SOLID
 62
     7
 10
-166.640670776
 20
185.799514771
 30
0.000000000
 11
-176.640670776
 21
187.466018677
 31
0.000000000
  0
LINE
  8
PLAIN_
  6
SOLID
 62
     7
 10
-176.640670776
 20
187.466018677
 30
0.000000000
 11
-176.640670776
 21
184.133010864
 31
0.000000000
  0
TEXT
  8
PLAIN_
  6
SOLID
 62
     7
 10
-209.808380127
 20
190.799514771
 30
0.000000000
 40
10.000000000
  1
77
 50
0.000000000
 41
0.733230782
  0
ENDBLK
  0
BLOCK
  2
*D21
  8
PLAIN_
 70
    65
 10
0.000000000
 20
0.000000000
 30
0.000000000
  3
*D21
  0
LINE
  8
PLAIN_
  6
SOLID
 62
     7
 10
430.075897217
 20
151.805801392
 30
0.000000000
 11
435.801330566
 21
159.686172485
 31
0.000000000
  0
LINE
  8
PLAIN_
  6
SOLID
 62
     7
 10
328.389099121
 20
184.845855713
 30
0.000000000
 11
328.389099121
 21
194.586532593
 31
0.000000000
  0
LINE
  8
PLAIN_
  6
SOLID
 62
     7
 10
426.316864014
 20
163.560745239
 30
0.000000000
 11
435.507446289
 21
159.281661987
 31
0.000000000
  0
LINE
  8
PLAIN_
  6
SOLID
 62
     7
 10
435.507446289
 20
159.281661987
 30
0.000000000
 11
428.201263428
 21
166.309921265
 31
0.000000000
  0
LINE
  8
PLAIN_
  6
SOLID
 62
     7
 10
428.201263428
 20
166.309921265
 30
0.000000000
 11
426.316864014
 21
163.560745239
 31
0.000000000
  0
LINE
  8
PLAIN_
  6
SOLID
 62
     7
 10
338.431060791
 20
195.478042603
 30
0.000000000
 11
328.389099121
 21
194.086532593
 31
0.000000000
  0
LINE
  8
PLAIN_
  6
SOLID
 62
     7
 10
328.389099121
 20
194.086532593
 30
0.000000000
 11
338.339630127
 21
192.146286011
 31
0.000000000
  0
LINE
  8
PLAIN_
  6
SOLID
 62
     7
 10
338.339630127
 20
192.146286011
 30
0.000000000
 11
338.431060791
 21
195.478042603
 31
0.000000000
  0
ARC
  8
PLAIN_
  6
SOLID
 62
     7
 10
328.389099121
 20
11.845943451
 30
0.000000000
 40
182.240585327
 50
53.999993004
 51
90.000000000
  0
ARC
  8
PLAIN_
  6
SOLID
 62
     7
 10
328.389099121
 20
11.845943451
 30
0.000000000
 40
182.240585327
 50
53.999993004
 51
90.000000000
  0
TEXT
  8
PLAIN_
  6
SOLID
 62
     7
 10
376.264984131
 20
193.166519165
 30
0.000000000
 40
10.000000000
  1
36%%d
 50
-17.999998793
 41
0.699897448
  0
ENDBLK
  0
BLOCK
  2
*H1
  8
PLAIN_
 70
    65
 10
0.000000000
 20
0.000000000
 30
0.000000000
  3
*H1
  0
LINE
  8
PLAIN_
  6
SOLID
 62
     7
 10
25.535919189
 20
10.205332756
 30
0.000000000
 11
29.437530518
 21
6.303706169
 31
0.000000000
  0
LINE
  8
PLAIN_
  6
SOLID
 62
     7
 10
31.075408936
 20
4.665827751
 30
0.000000000
 11
35.794769287
 21
-0.053532600
 31
0.000000000
  0
LINE
  8
PLAIN_
  6
SOLID
 62
     7
 10
40.140930176
 20
-0.157048225
 30
0.000000000
 11
35.138031006
 21
4.845850945
 31
0.000000000
  0
LINE
  8
PLAIN_
  6
SOLID
 62
     7
 10
34.478698730
 20
5.505183220
 30
0.000000000
 11
24.950347900
 21
15.033549309
 31
0.000000000
  0
LINE
  8
PLAIN_
  6
SOLID
 62
     7
 10
26.519042969
 20
17.707485199
 30
0.000000000
 11
31.389923096
 21
12.836619377
 31
0.000000000
  0
LINE
  8
PLAIN_
  6
SOLID
 62
     7
 10
39.380676270
 20
4.845850945
 30
0.000000000
 11
44.022125244
 21
0.204401970
 31
0.000000000
  0
LINE
  8
PLAIN_
  6
SOLID
 62
     7
 10
48.342010498
 20
0.127146721
 30
0.000000000
 11
43.623321533
 21
4.845835686
 31
0.000000000
  0
LINE
  8
PLAIN_
  6
SOLID
 62
     7
 10
32.942810059
 20
15.526331902
 30
0.000000000
 11
29.284179688
 21
19.184963226
 31
0.000000000
  0
LINE
  8
PLAIN_
  6
SOLID
 62
     7
 10
31.490753174
 20
21.221019745
 30
0.000000000
 11
34.495727539
 21
18.216060638
 31
0.000000000
  0
LINE
  8
PLAIN_
  6
SOLID
 62
     7
 10
47.865936279
 20
4.845835686
 30
0.000000000
 11
53.582855225
 21
-0.871068001
 31
0.000000000
  0
LINE
  8
PLAIN_
  6
SOLID
 62
     7
 10
57.792572021
 20
-0.838154793
 30
0.000000000
 11
52.108612061
 21
4.845835686
 31
0.000000000
  0
LINE
  8
PLAIN_
  6
SOLID
 62
     7
 10
38.108581543
 20
18.845851898
 30
0.000000000
 11
33.950225830
 21
23.004192352
 31
0.000000000
  0
LINE
  8
PLAIN_
  6
SOLID
 62
     7
 10
37.756591797
 20
23.440486908
 30
0.000000000
 11
42.351226807
 21
18.845867157
 31
0.000000000
  0
LINE
  8
PLAIN_
  6
SOLID
 62
     7
 10
56.351226807
 20
4.845850945
 30
0.000000000
 11
61.888580322
 21
-0.691487312
 31
0.000000000
  0
LINE
  8
PLAIN_
  6
SOLID
 62
     7
 10
65.560638428
 20
-0.120930672
 30
0.000000000
 11
60.593872070
 21
4.845850945
 31
0.000000000
  0
LINE
  8
PLAIN_
  6
SOLID
 62
     7
 10
46.593841553
 20
18.845867157
 30
0.000000000
 11
42.073059082
 21
23.366664886
 31
0.000000000
  0
LINE
  8
PLAIN_
  6
SOLID
 62
     7
 10
46.336456299
 20
23.345897675
 30
0.000000000
 11
50.836517334
 21
18.845867157
 31
0.000000000
  0
LINE
  8
PLAIN_
  6
SOLID
 62
     7
 10
64.836517334
 20
4.845850945
 30
0.000000000
 11
68.979278564
 21
0.703074455
 31
0.000000000
  0
LINE
  8
PLAIN_
  6
SOLID
 62
     7
 10
74.303222656
 20
-0.378239632
 30
0.000000000
 11
69.079132080
 21
4.845835686
 31
0.000000000
  0
LINE
  8
PLAIN_
  6
SOLID
 62
     7
 10
55.079132080
 20
18.845851898
 30
0.000000000
 11
50.271270752
 21
23.653697968
 31
0.000000000
  0
LINE
  8
PLAIN_
  6
SOLID
 62
     7
 10
54.352752686
 20
23.814876556
 30
0.000000000
 11
59.321777344
 21
18.845851898
 31
0.000000000
  0
LINE
  8
PLAIN_
  6
SOLID
 62
     7
 10
63.564422607
 20
18.845851898
 30
0.000000000
 11
58.765716553
 21
23.644542694
 31
0.000000000
  0
LINE
  8
PLAIN_
  6
SOLID
 62
     7
 10
63.108489990
 20
23.544414520
 30
0.000000000
 11
67.807067871
 21
18.845851898
 31
0.000000000
  0
LINE
  8
PLAIN_
  6
SOLID
 62
     7
 10
70.859344482
 20
20.036235809
 30
0.000000000
 11
67.029144287
 21
23.866405487
 31
0.000000000
  0
LINE
  8
PLAIN_
  6
SOLID
 62
     7
 10
71.003326416
 20
24.134883881
 30
0.000000000
 11
74.233398438
 21
20.904811859
 31
0.000000000
  0
ENDBLK
  0
BLOCK
  2
*H2
  8
PLAIN_
 70
    65
 10
0.000000000
 20
0.000000000
 30
0.000000000
  3
*H2
  0
LINE
  8
PLAIN_
  6
SOLID
 62
     7
 10
-17.140655518
 20
-104.032814026
 30
0.000000000
 11
-15.019332886
 21
-106.154136658
 31
0.000000000
  0
LINE
  8
PLAIN_
  6
SOLID
 62
     7
 10
-10.776687622
 20
-106.154136658
 30
0.000000000
 11
-17.140647888
 21
-99.790176392
 31
0.000000000
  0
LINE
  8
PLAIN_
  6
SOLID
 62
     7
 10
-16.374465942
 20
-96.313728333
 30
0.000000000
 11
-6.534057617
 21
-106.154136658
 31
0.000000000
  0
LINE
  8
PLAIN_
  6
SOLID
 62
     7
 10
-2.291412354
 20
-106.154136658
 30
0.000000000
 11
-13.254570007
 21
-95.190979004
 31
0.000000000
  0
LINE
  8
PLAIN_
  6
SOLID
 62
     7
 10
-10.130622864
 20
-94.072280884
 30
0.000000000
 11
1.951240540
 21
-106.154144287
 31
0.000000000
  0
LINE
  8
PLAIN_
  6
SOLID
 62
     7
 10
2.859329224
 20
-102.819602966
 30
0.000000000
 11
-6.953224182
 21
-93.007049561
 31
0.000000000
  0
LINE
  8
PLAIN_
  6
SOLID
 62
     7
 10
-3.233261108
 20
-92.484367371
 30
0.000000000
 11
2.859336853
 21
-98.576965332
 31
0.000000000
  0
LINE
  8
PLAIN_
  6
SOLID
 62
     7
 10
2.859336853
 20
-94.334320068
 30
0.000000000
 11
0.785957336
 21
-92.260940552
 31
0.000000000
  0
ENDBLK
  0
ENDSEC
  0
SECTION
  2
ENTITIES
  0
TEXT
  8
PLAIN_
  6
SOLID
 62
     7
 10
199.783172607
 20
52.259784698
 30
0.000000000
 40
6.000000000
  1
5
 50
71.999988343
 41
0.616049488
  0
TEXT
  8
PLAIN_
  6
SOLID
 62
     7
 10
201.214080811
 20
-27.817207336
 30
0.000000000
 40
10.000000000
  1
X
 50
-72.000002004
 41
0.715176916
  0
TEXT
  8
PLAIN_
  6
SOLID
 62
     7
 10
243.603790283
 20
-100.610145569
 30
0.000000000
 40
6.000000000
  1
4
 50
-35.999997587
 41
0.717609485
  0
TEXT
  8
PLAIN_
  6
SOLID
 62
     7
 10
410.421691895
 20
-103.663375854
 30
0.000000000
 40
6.000000000
  1
3
 50
35.999997587
 41
0.617265781
  0
TEXT
  8
PLAIN_
  6
SOLID
 62
     7
 10
456.409423828
 20
55.588451385
 30
0.000000000
 40
6.000000000
  1
2
 50
-72.000002004
 41
0.636726379
  0
TEXT
  8
PLAIN_
  6
SOLID
 62
     7
 10
402.235717773
 20
116.362022400
 30
0.000000000
 40
10.000000000
  1
Y
 50
-35.999990757
 41
0.718217611
  0
TEXT
  8
PLAIN_
  6
SOLID
 62
     7
 10
326.691558838
 20
147.635803223
 30
0.000000000
 40
6.000000000
  1
1
 50
0.000000000
 41
0.408672531
  0
TEXT
  8
PLAIN_
  6
SOLID
 62
     7
 10
-213.431182861
 20
14.361312866
 30
0.000000000
 40
8.000000000
  1
D 40
 50
0.000000000
 41
0.861283422
  0
INSERT
  2
*L1
  8
PLAIN_
 41
1.000000000
 50
0.000000000
 10
0.000000000
 20
0.000000000
 30
0.000000000
  0
INSERT
  2
*D1
  8
PLAIN_
 41
1.000000000
 50
0.000000000
 10
0.000000000
 20
0.000000000
 30
0.000000000
  0
INSERT
  2
*L2
  8
PLAIN_
 41
1.000000000
 50
0.000000000
 10
0.000000000
 20
0.000000000
 30
0.000000000
  0
TEXT
  8
PLAIN_
  6
SOLID
 62
     7
 10
291.683929443
 20
-46.237232208
 30
0.000000000
 40
8.000000000
  1
B
 50
0.000005009
 41
0.718825758
  0
TEXT
  8
PLAIN_
  6
SOLID
 62
     7
 10
359.203765869
 20
-46.549091339
 30
0.000000000
 40
8.000000000
  1
A
 50
0.000005009
 41
0.820385754
  0
INSERT
  2
*D2
  8
PLAIN_
 41
1.000000000
 50
0.000000000
 10
0.000000000
 20
0.000000000
 30
0.000000000
  0
INSERT
  2
*D3
  8
PLAIN_
 41
1.000000000
 50
0.000000000
 10
0.000000000
 20
0.000000000
 30
0.000000000
  0
INSERT
  2
*D4
  8
PLAIN_
 41
1.000000000
 50
0.000000000
 10
0.000000000
 20
0.000000000
 30
0.000000000
  0
INSERT
  2
*D5
  8
PLAIN_
 41
1.000000000
 50
0.000000000
 10
0.000000000
 20
0.000000000
 30
0.000000000
  0
INSERT
  2
*D6
  8
PLAIN_
 41
1.000000000
 50
0.000000000
 10
0.000000000
 20
0.000000000
 30
0.000000000
  0
INSERT
  2
*D7
  8
PLAIN_
 41
1.000000000
 50
0.000000000
 10
0.000000000
 20
0.000000000
 30
0.000000000
  0
INSERT
  2
*L3
  8
PLAIN_
 41
1.000000000
 50
0.000000000
 10
0.000000000
 20
0.000000000
 30
0.000000000
  0
TEXT
  8
PLAIN_
  6
SOLID
 62
     7
 10
-90.275955200
 20
16.209758759
 30
0.000000000
 40
14.285699844
  1
GM2
 50
0.000000000
 41
0.793424658
  0
INSERT
  2
*D8
  8
PLAIN_
 41
1.000000000
 50
0.000000000
 10
0.000000000
 20
0.000000000
 30
0.000000000
  0
INSERT
  2
*D9
  8
PLAIN_
 41
1.000000000
 50
0.000000000
 10
0.000000000
 20
0.000000000
 30
0.000000000
  0
INSERT
  2
*D10
  8
PLAIN_
 41
1.000000000
 50
0.000000000
 10
0.000000000
 20
0.000000000
 30
0.000000000
  0
INSERT
  2
*D11
  8
PLAIN_
 41
1.000000000
 50
0.000000000
 10
0.000000000
 20
0.000000000
 30
0.000000000
  0
INSERT
  2
*D12
  8
PLAIN_
 41
1.000000000
 50
0.000000000
 10
0.000000000
 20
0.000000000
 30
0.000000000
  0
INSERT
  2
*D13
  8
PLAIN_
 41
1.000000000
 50
0.000000000
 10
0.000000000
 20
0.000000000
 30
0.000000000
  0
INSERT
  2
*D14
  8
PLAIN_
 41
1.000000000
 50
0.000000000
 10
0.000000000
 20
0.000000000
 30
0.000000000
  0
INSERT
  2
*D15
  8
PLAIN_
 41
1.000000000
 50
0.000000000
 10
0.000000000
 20
0.000000000
 30
0.000000000
  0
INSERT
  2
*L4
  8
PLAIN_
 41
1.000000000
 50
0.000000000
 10
0.000000000
 20
0.000000000
 30
0.000000000
  0
INSERT
  2
*D16
  8
PLAIN_
 41
1.000000000
 50
0.000000000
 10
0.000000000
 20
0.000000000
 30
0.000000000
  0
INSERT
  2
*L5
  8
PLAIN_
 41
1.000000000
 50
0.000000000
 10
0.000000000
 20
0.000000000
 30
0.000000000
  0
INSERT
  2
*D17
  8
PLAIN_
 41
1.000000000
 50
0.000000000
 10
0.000000000
 20
0.000000000
 30
0.000000000
  0
INSERT
  2
*D18
  8
PLAIN_
 41
1.000000000
 50
0.000000000
 10
0.000000000
 20
0.000000000
 30
0.000000000
  0
INSERT
  2
*D19
  8
PLAIN_
 41
1.000000000
 50
0.000000000
 10
0.000000000
 20
0.000000000
 30
0.000000000
  0
INSERT
  2
*D20
  8
PLAIN_
 41
1.000000000
 50
0.000000000
 10
0.000000000
 20
0.000000000
 30
0.000000000
  0
INSERT
  2
*D21
  8
PLAIN_
 41
1.000000000
 50
0.000000000
 10
0.000000000
 20
0.000000000
 30
0.000000000
  0
LINE
  8
PLAIN_
  6
SOLID
 62
     7
 10
-228.354935884
 20
44.915102959
 30
0.000000000
 11
-228.354935884
 21
63.319262505
 31
0.000000000
  0
LINE
  8
PLAIN_
  6
SOLID
 62
     7
 10
-238.640702486
 20
-49.654149055
 30
0.000000000
 11
-238.640702486
 21
-31.654149055
 31
0.000000000
  0
ARC
  8
PLAIN_
  6
SOLID
 62
     7
 10
-238.640702486
 20
-48.654149055
 30
0.000000000
 40
1.000000000
 50
180.000000000
 51
269.999982014
  0
LINE
  8
PLAIN_
  6
L_DASH
 62
     7
 10
-233.354935884
 20
1.347453117
 30
0.000000000
 11
-230.049638018
 21
-4.377537534
 31
0.000000000
  0
ARC
  8
PLAIN_
  6
SOLID
 62
     7
 10
-239.354935884
 20
62.319262505
 30
0.000000000
 40
1.000000000
 50
90.000017986
 51
180.000000000
  0
LINE
  8
PLAIN_
  6
SOLID
 62
     7
 10
-240.354935884
 20
46.319254875
 30
0.000000000
 11
-240.354935884
 21
62.319262505
 31
0.000000000
  0
LINE
  8
PLAIN_
  6
SOLID
 62
     7
 10
-228.354935884
 20
45.319254875
 30
0.000000000
 11
-239.354935884
 21
45.319254875
 31
0.000000000
  0
ARC
  8
PLAIN_
  6
SOLID
 62
     7
 10
-239.354935884
 20
46.319254875
 30
0.000000000
 40
1.000000000
 50
180.000000000
 51
269.999982014
  0
ARC
  8
PLAIN_
  6
SOLID
 62
     7
 10
-227.354935884
 20
44.915102959
 30
0.000000000
 40
1.000000000
 50
180.000000000
 51
267.999269342
  0
LINE
  8
PLAIN_
  6
CENTER
 62
     7
 10
328.389036894
 20
11.845860860
 30
0.000000000
 11
429.781998883
 21
151.401300605
 31
0.000000000
  0
LINE
  8
PLAIN_
  6
CENTER
 62
     7
 10
26.859343290
 20
33.810664415
 30
0.000000000
 11
26.859343290
 21
25.517268419
 31
0.000000000
  0
LINE
  8
PLAIN_
  6
SOLID
 62
     7
 10
69.859343290
 20
18.845851183
 30
0.000000000
 11
69.859343290
 21
4.845851183
 31
0.000000000
  0
LINE
  8
PLAIN_
  6
SOLID
 62
     7
 10
72.859343290
 20
23.963435411
 30
0.000000000
 11
72.859343290
 21
29.345851183
 31
0.000000000
  0
ARC
  8
PLAIN_
  6
SOLID
 62
     7
 10
72.859343290
 20
22.345851183
 30
0.000000000
 40
2.000000000
 50
270.000065797
 51
0.000000000
  0
LINE
  8
PLAIN_
  6
SOLID
 62
     7
 10
30.817900419
 20
11.845851183
 30
0.000000000
 11
34.859343221
 21
18.845850863
 31
0.000000000
  0
POLYLINE
  8
PLAIN_
  6
SOLID
 62
     7
 66
     1
 10
0.000000000
 20
0.000000000
 30
0.000000000
  0
VERTEX
  8
PLAIN_
 10
74.859318207
 20
23.784947736
 30
0.000000000
  0
VERTEX
  8
PLAIN_
 10
73.400759355
 20
23.905238677
 30
0.000000000
  0
VERTEX
  8
PLAIN_
 10
71.268588129
 20
24.122933235
 30
0.000000000
  0
VERTEX
  8
PLAIN_
 10
70.563878848
 20
24.166432689
 30
0.000000000
  0
VERTEX
  8
PLAIN_
 10
69.858497593
 20
24.179149066
 30
0.000000000
  0
VERTEX
  8
PLAIN_
 10
69.150236845
 20
24.151332140
 30
0.000000000
  0
VERTEX
  8
PLAIN_
 10
68.454308965
 20
24.080318959
 30
0.000000000
  0
VERTEX
  8
PLAIN_
 10
66.320738554
 20
23.761042833
 30
0.000000000
  0
VERTEX
  8
PLAIN_
 10
65.096045680
 20
23.632087156
 30
0.000000000
  0
VERTEX
  8
PLAIN_
 10
63.846997948
 20
23.560844362
 30
0.000000000
  0
VERTEX
  8
PLAIN_
 10
62.581272475
 20
23.536880251
 30
0.000000000
  0
VERTEX
  8
PLAIN_
 10
61.306546375
 20
23.549760619
 30
0.000000000
  0
VERTEX
  8
PLAIN_
 10
58.760800755
 20
23.644317983
 30
0.000000000
  0
VERTEX
  8
PLAIN_
 10
56.271178007
 20
23.761042833
 30
0.000000000
  0
VERTEX
  8
PLAIN_
 10
55.064760039
 20
23.802162910
 30
0.000000000
  0
VERTEX
  8
PLAIN_
 10
53.884333879
 20
23.820704345
 30
0.000000000
  0
VERTEX
  8
PLAIN_
 10
52.726507640
 20
23.809415024
 30
0.000000000
  0
VERTEX
  8
PLAIN_
 10
51.587889433
 20
23.761042833
 30
0.000000000
  0
VERTEX
  8
PLAIN_
 10
47.002196074
 20
23.370784044
 30
0.000000000
  0
VERTEX
  8
PLAIN_
 10
45.766959082
 20
23.326869589
 30
0.000000000
  0
VERTEX
  8
PLAIN_
 10
44.496040344
 20
23.319047397
 30
0.000000000
  0
VERTEX
  8
PLAIN_
 10
38.931883737
 20
23.447177984
 30
0.000000000
  0
VERTEX
  8
PLAIN_
 10
37.455730883
 20
23.439580099
 30
0.000000000
  0
VERTEX
  8
PLAIN_
 10
35.976958036
 20
23.370784044
 30
0.000000000
  0
VERTEX
  8
PLAIN_
 10
35.235444489
 20
23.302034125
 30
0.000000000
  0
VERTEX
  8
PLAIN_
 10
34.506017171
 20
23.184066746
 30
0.000000000
  0
VERTEX
  8
PLAIN_
 10
34.150838857
 20
23.097823466
 30
0.000000000
  0
VERTEX
  8
PLAIN_
 10
33.804685713
 20
22.988712167
 30
0.000000000
  0
VERTEX
  8
PLAIN_
 10
33.469558941
 20
22.853211633
 30
0.000000000
  0
VERTEX
  8
PLAIN_
 10
33.147459745
 20
22.687800646
 30
0.000000000
  0
VERTEX
  8
PLAIN_
 10
32.890015820
 20
22.525368398
 30
0.000000000
  0
VERTEX
  8
PLAIN_
 10
32.641627945
 20
22.342473881
 30
0.000000000
  0
VERTEX
  8
PLAIN_
 10
32.166500350
 20
21.926311877
 30
0.000000000
  0
VERTEX
  8
PLAIN_
 10
31.711036978
 20
21.461342305
 30
0.000000000
  0
VERTEX
  8
PLAIN_
 10
30.814942957
 20
20.473091151
 30
0.000000000
  0
VERTEX
  8
PLAIN_
 10
30.352232339
 20
19.993864913
 30
0.000000000
  0
VERTEX
  8
PLAIN_
 10
29.865026003
 20
19.553941796
 30
0.000000000
  0
VERTEX
  8
PLAIN_
 10
29.608786945
 20
19.355602556
 30
0.000000000
  0
VERTEX
  8
PLAIN_
 10
29.342283964
 20
19.175349474
 30
0.000000000
  0
VERTEX
  8
PLAIN_
 10
29.008200946
 20
18.984652162
 30
0.000000000
  0
VERTEX
  8
PLAIN_
 10
28.662235379
 20
18.815859918
 30
0.000000000
  0
VERTEX
  8
PLAIN_
 10
27.257216349
 20
18.197695117
 30
0.000000000
  0
VERTEX
  8
PLAIN_
 10
26.925089584
 20
18.016893338
 30
0.000000000
  0
VERTEX
  8
PLAIN_
 10
26.610380888
 20
17.809382677
 30
0.000000000
  0
VERTEX
  8
PLAIN_
 10
26.263098986
 20
17.518784052
 30
0.000000000
  0
VERTEX
  8
PLAIN_
 10
25.949185583
 20
17.185600820
 30
0.000000000
  0
VERTEX
  8
PLAIN_
 10
25.670206958
 20
16.816885940
 30
0.000000000
  0
VERTEX
  8
PLAIN_
 10
25.427729391
 20
16.419692367
 30
0.000000000
  0
VERTEX
  8
PLAIN_
 10
25.223319162
 20
16.001073059
 30
0.000000000
  0
VERTEX
  8
PLAIN_
 10
25.058542551
 20
15.568080972
 30
0.000000000
  0
VERTEX
  8
PLAIN_
 10
24.934965837
 20
15.127769065
 30
0.000000000
  0
VERTEX
  8
PLAIN_
 10
24.854155302
 20
14.687190294
 30
0.000000000
  0
VERTEX
  8
PLAIN_
 10
24.819769123
 20
14.322178871
 30
0.000000000
  0
VERTEX
  8
PLAIN_
 10
24.812869970
 20
13.960256642
 30
0.000000000
  0
VERTEX
  8
PLAIN_
 10
24.829853323
 20
13.599754516
 30
0.000000000
  0
VERTEX
  8
PLAIN_
 10
24.867114658
 20
13.239003405
 30
0.000000000
  0
VERTEX
  8
PLAIN_
 10
24.988053190
 20
12.510077866
 30
0.000000000
  0
VERTEX
  8
PLAIN_
 10
25.146849394
 20
11.760127306
 30
0.000000000
  0
VERTEX
  8
PLAIN_
 10
25.453976569
 20
10.457485871
 30
0.000000000
  0
VERTEX
  8
PLAIN_
 10
25.643970196
 20
9.807786472
 30
0.000000000
  0
VERTEX
  8
PLAIN_
 10
25.872673525
 20
9.179132327
 30
0.000000000
  0
VERTEX
  8
PLAIN_
 10
26.150903811
 20
8.586496720
 30
0.000000000
  0
VERTEX
  8
PLAIN_
 10
26.311971956
 20
8.308365019
 30
0.000000000
  0
VERTEX
  8
PLAIN_
 10
26.489478312
 20
8.044852933
 30
0.000000000
  0
VERTEX
  8
PLAIN_
 10
26.684775035
 20
7.797832122
 30
0.000000000
  0
VERTEX
  8
PLAIN_
 10
26.899214284
 20
7.569174248
 30
0.000000000
  0
VERTEX
  8
PLAIN_
 10
27.134148214
 20
7.360750969
 30
0.000000000
  0
VERTEX
  8
PLAIN_
 10
27.390928984
 20
7.174433947
 30
0.000000000
  0
VERTEX
  8
PLAIN_
 10
27.846115801
 20
6.922610505
 30
0.000000000
  0
VERTEX
  8
PLAIN_
 10
28.339358892
 20
6.713623337
 30
0.000000000
  0
VERTEX
  8
PLAIN_
 10
29.354683965
 20
6.349968612
 30
0.000000000
  0
VERTEX
  8
PLAIN_
 10
29.834100982
 20
6.158206451
 30
0.000000000
  0
VERTEX
  8
PLAIN_
 10
30.266244341
 20
5.935091354
 30
0.000000000
  0
VERTEX
  8
PLAIN_
 10
30.457921998
 20
5.805980423
 30
0.000000000
  0
VERTEX
  8
PLAIN_
 10
30.629781560
 20
5.662076020
 30
0.000000000
  0
VERTEX
  8
PLAIN_
 10
30.779156466
 20
5.501059732
 30
0.000000000
  0
VERTEX
  8
PLAIN_
 10
30.903380156
 20
5.320613146
 30
0.000000000
  0
VERTEX
  8
PLAIN_
 10
31.028545514
 20
5.046620322
 30
0.000000000
  0
VERTEX
  8
PLAIN_
 10
31.114320540
 20
4.741342219
 30
0.000000000
  0
VERTEX
  8
PLAIN_
 10
31.171231315
 20
4.412521550
 30
0.000000000
  0
VERTEX
  8
PLAIN_
 10
31.320753465
 20
3.016667532
 30
0.000000000
  0
VERTEX
  8
PLAIN_
 10
31.391234159
 20
2.686274767
 30
0.000000000
  0
VERTEX
  8
PLAIN_
 10
31.508386346
 20
2.341873181
 30
0.000000000
  0
VERTEX
  8
PLAIN_
 10
31.665510744
 20
2.025074120
 30
0.000000000
  0
VERTEX
  8
PLAIN_
 10
31.859580358
 20
1.734750126
 30
0.000000000
  0
VERTEX
  8
PLAIN_
 10
32.087568192
 20
1.469773743
 30
0.000000000
  0
VERTEX
  8
PLAIN_
 10
32.346447250
 20
1.229017514
 30
0.000000000
  0
VERTEX
  8
PLAIN_
 10
32.633190536
 20
1.011353982
 30
0.000000000
  0
VERTEX
  8
PLAIN_
 10
32.944771054
 20
0.815655690
 30
0.000000000
  0
VERTEX
  8
PLAIN_
 10
33.278161809
 20
0.640795181
 30
0.000000000
  0
VERTEX
  8
PLAIN_
 10
33.630335803
 20
0.485644998
 30
0.000000000
  0
VERTEX
  8
PLAIN_
 10
33.998266042
 20
0.349077685
 30
0.000000000
  0
VERTEX
  8
PLAIN_
 10
34.769287268
 20
0.127181838
 30
0.000000000
  0
VERTEX
  8
PLAIN_
 10
35.567009518
 20
-0.033912013
 30
0.000000000
  0
VERTEX
  8
PLAIN_
 10
36.367216825
 20
-0.143223524
 30
0.000000000
  0
VERTEX
  8
PLAIN_
 10
37.150314669
 20
-0.209210294
 30
0.000000000
  0
VERTEX
  8
PLAIN_
 10
37.915197043
 20
-0.238081310
 30
0.000000000
  0
VERTEX
  8
PLAIN_
 10
38.665380752
 20
-0.235483315
 30
0.000000000
  0
VERTEX
  8
PLAIN_
 10
39.404382601
 20
-0.207063051
 30
0.000000000
  0
VERTEX
  8
PLAIN_
 10
40.862907941
 20
-0.095342680
 30
0.000000000
  0
VERTEX
  8
PLAIN_
 10
43.794111751
 20
0.190397212
 30
0.000000000
  0
VERTEX
  8
PLAIN_
 10
45.284642369
 20
0.279394388
 30
0.000000000
  0
VERTEX
  8
PLAIN_
 10
46.032442952
 20
0.292879136
 30
0.000000000
  0
VERTEX
  8
PLAIN_
 10
46.780220591
 20
0.279046109
 30
0.000000000
  0
VERTEX
  8
PLAIN_
 10
47.526690440
 20
0.232913896
 30
0.000000000
  0
VERTEX
  8
PLAIN_
 10
48.270567656
 20
0.149501085
 30
0.000000000
  0
VERTEX
  8
PLAIN_
 10
53.148985624
 20
-0.826206923
 30
0.000000000
  0
VERTEX
  8
PLAIN_
 10
53.751860636
 20
-0.886640541
 30
0.000000000
  0
VERTEX
  8
PLAIN_
 10
54.354656057
 20
-0.919954372
 30
0.000000000
  0
VERTEX
  8
PLAIN_
 10
55.564125732
 20
-0.924928748
 30
0.000000000
  0
VERTEX
  8
PLAIN_
 10
58.027403593
 20
-0.826206923
 30
0.000000000
  0
VERTEX
  8
PLAIN_
 10
61.608357981
 20
-0.713817442
 30
0.000000000
  0
VERTEX
  8
PLAIN_
 10
62.507710675
 20
-0.652480984
 30
0.000000000
  0
VERTEX
  8
PLAIN_
 10
63.400495144
 20
-0.559360193
 30
0.000000000
  0
VERTEX
  8
PLAIN_
 10
64.282604452
 20
-0.425210722
 30
0.000000000
  0
VERTEX
  8
PLAIN_
 10
65.149931669
 20
-0.240788221
 30
0.000000000
  0
VERTEX
  8
PLAIN_
 10
66.121551290
 20
0.031441774
 30
0.000000000
  0
VERTEX
  8
PLAIN_
 10
67.084923506
 20
0.323449761
 30
0.000000000
  0
VERTEX
  8
PLAIN_
 10
68.056477293
 20
0.577265758
 30
0.000000000
  0
VERTEX
  8
PLAIN_
 10
68.550456332
 20
0.671736142
 30
0.000000000
  0
VERTEX
  8
PLAIN_
 10
69.052641630
 20
0.734919786
 30
0.000000000
  0
VERTEX
  8
PLAIN_
 10
69.564185572
 20
0.761147377
 30
0.000000000
  0
VERTEX
  8
PLAIN_
 10
70.082635518
 20
0.751057329
 30
0.000000000
  0
VERTEX
  8
PLAIN_
 10
70.604637553
 20
0.706864984
 30
0.000000000
  0
VERTEX
  8
PLAIN_
 10
71.126837760
 20
0.630785689
 30
0.000000000
  0
VERTEX
  8
PLAIN_
 10
71.645882226
 20
0.525034786
 30
0.000000000
  0
VERTEX
  8
PLAIN_
 10
72.158417035
 20
0.391827619
 30
0.000000000
  0
VERTEX
  8
PLAIN_
 10
72.661088272
 20
0.233379532
 30
0.000000000
  0
VERTEX
  8
PLAIN_
 10
73.150542021
 20
0.051905870
 30
0.000000000
  0
VERTEX
  8
PLAIN_
 10
74.323250803
 20
-0.421664724
 30
0.000000000
  0
VERTEX
  8
PLAIN_
 10
74.859341627
 20
-0.563813436
 30
0.000000000
  0
SEQEND
  0
LINE
  8
PLAIN_
  6
SOLID
 62
     7
 10
39.781676054
 20
18.845851183
 30
0.000000000
 11
42.859343417
 21
19.845851253
 31
0.000000000
  0
LINE
  8
PLAIN_
  6
SOLID
 62
     7
 10
42.859312773
 20
19.845851183
 30
0.000000000
 11
70.859343290
 21
19.845851183
 31
0.000000000
  0
LINE
  8
PLAIN_
  6
SOLID
 62
     7
 10
70.859343290
 20
19.845851183
 30
0.000000000
 11
69.859343325
 21
18.845851217
 31
0.000000000
  0
LINE
  8
PLAIN_
  6
SOLID
 62
     7
 10
70.859343290
 20
20.345851183
 30
0.000000000
 11
72.859343290
 21
20.345851183
 31
0.000000000
  0
LINE
  8
PLAIN_
  6
SOLID
 62
     7
 10
-228.354935884
 20
63.319262505
 30
0.000000000
 11
-239.354935884
 21
63.319262505
 31
0.000000000
  0
LINE
  8
PLAIN_
  6
CENTER
 62
     7
 10
-154.926057100
 20
11.845850945
 30
0.000000000
 11
-248.640671968
 21
11.845850945
 31
0.000000000
  0
LINE
  8
PLAIN_
  6
SOLID
 62
     7
 10
-239.640702486
 20
-48.654149055
 30
0.000000000
 11
-239.640702486
 21
-32.654149055
 31
0.000000000
  0
ARC
  8
PLAIN_
  6
SOLID
 62
     7
 10
-238.640702486
 20
-32.654149055
 30
0.000000000
 40
1.000000000
 50
90.000017986
 51
180.000000000
  0
LINE
  8
PLAIN_
  6
L_DASH
 62
     7
 10
-233.354935884
 20
48.594264030
 30
0.000000000
 11
-230.049638018
 21
54.319254681
 31
0.000000000
  0
LINE
  8
PLAIN_
  6
SOLID
 62
     7
 10
-239.354935884
 20
45.319254875
 30
0.000000000
 11
-239.354935884
 21
63.319262505
 31
0.000000000
  0
LINE
  8
PLAIN_
  6
L_DASH
 62
     7
 10
-233.354935884
 20
51.456751823
 30
0.000000000
 11
-240.354935884
 21
51.456751823
 31
0.000000000
  0
LINE
  8
PLAIN_
  6
L_DASH
 62
     7
 10
-233.354935884
 20
48.594264030
 30
0.000000000
 11
-240.354935884
 21
48.594264030
 31
0.000000000
  0
LINE
  8
PLAIN_
  6
L_DASH
 62
     7
 10
-233.354935884
 20
48.594264030
 30
0.000000000
 11
-233.354935884
 21
60.044253349
 31
0.000000000
  0
LINE
  8
PLAIN_
  6
L_DASH
 62
     7
 10
-233.354935884
 20
60.044253349
 30
0.000000000
 11
-240.354935884
 21
60.044253349
 31
0.000000000
  0
LINE
  8
PLAIN_
  6
L_DASH
 62
     7
 10
-233.354935884
 20
57.181750298
 30
0.000000000
 11
-240.354935884
 21
57.181750298
 31
0.000000000
  0
LINE
  8
PLAIN_
  6
L_DASH
 62
     7
 10
-233.354935884
 20
60.044253349
 30
0.000000000
 11
-230.049638071
 21
54.319254966
 31
0.000000000
  0
LINE
  8
PLAIN_
  6
SOLID
 62
     7
 10
-228.354935884
 20
4.622462273
 30
0.000000000
 11
-239.354935884
 21
4.622462273
 31
0.000000000
  0
LINE
  8
PLAIN_
  6
L_DASH
 62
     7
 10
-233.354935884
 20
-10.102528572
 30
0.000000000
 11
-230.049638018
 21
-4.377537921
 31
0.000000000
  0
ARC
  8
PLAIN_
  6
SOLID
 62
     7
 10
-233.457352877
 20
33.845850945
 30
0.000000000
 40
3.000000000
 50
269.999982014
 51
301.002692185
  0
LINE
  8
PLAIN_
  6
SOLID
 62
     7
 10
-223.640702486
 20
38.802332878
 30
0.000000000
 11
-223.640702486
 21
43.784792900
 31
0.000000000
  0
ARC
  8
PLAIN_
  6
SOLID
 62
     7
 10
-227.354935884
 20
63.723406792
 30
0.000000000
 40
1.000000000
 50
92.000730658
 51
180.000000000
  0
LINE
  8
PLAIN_
  6
SOLID
 62
     7
 10
-233.457352877
 20
30.845850945
 30
0.000000000
 11
-240.640702486
 21
30.845850945
 31
0.000000000
  0
LINE
  8
PLAIN_
  6
SOLID
 62
     7
 10
-166.640671968
 20
76.545855522
 30
0.000000000
 11
-166.930558455
 21
76.835742008
 31
0.000000000
  0
LINE
  8
PLAIN_
  6
SOLID
 62
     7
 10
-228.354935884
 20
44.802561760
 30
0.000000000
 11
-228.354935884
 21
63.723406792
 31
0.000000000
  0
LINE
  8
PLAIN_
  6
SOLID
 62
     7
 10
-166.640671968
 20
-52.654149055
 30
0.000000000
 11
-166.640671968
 21
76.845850945
 31
0.000000000
  0
LINE
  8
PLAIN_
  6
SOLID
 62
     7
 10
-228.354935884
 20
-13.377537727
 30
0.000000000
 11
-239.354935884
 21
-13.377537727
 31
0.000000000
  0
LINE
  8
PLAIN_
  6
SOLID
 62
     7
 10
-239.354935884
 20
-13.377537727
 30
0.000000000
 11
-239.354935884
 21
4.622462273
 31
0.000000000
  0
LINE
  8
PLAIN_
  6
L_DASH
 62
     7
 10
-233.354935884
 20
-10.102528572
 30
0.000000000
 11
-240.354935884
 21
-10.102528572
 31
0.000000000
  0
LINE
  8
PLAIN_
  6
SOLID
 62
     7
 10
-240.354935884
 20
-12.377537727
 30
0.000000000
 11
-240.354935884
 21
3.622462273
 31
0.000000000
  0
ARC
  8
PLAIN_
  6
SOLID
 62
     7
 10
-239.354935884
 20
3.622462273
 30
0.000000000
 40
1.000000000
 50
90.000017986
 51
180.000000000
  0
ARC
  8
PLAIN_
  6
SOLID
 62
     7
 10
-239.354935884
 20
-12.377537727
 30
0.000000000
 40
1.000000000
 50
180.000000000
 51
269.999982014
  0
LINE
  8
PLAIN_
  6
L_DASH
 62
     7
 10
-233.354935884
 20
-7.240040779
 30
0.000000000
 11
-240.354935884
 21
-7.240040779
 31
0.000000000
  0
LINE
  8
PLAIN_
  6
L_DASH
 62
     7
 10
-233.354935884
 20
-10.102528572
 30
0.000000000
 11
-233.354935884
 21
1.347453117
 31
0.000000000
  0
LINE
  8
PLAIN_
  6
L_DASH
 62
     7
 10
-233.354935884
 20
1.347453117
 30
0.000000000
 11
-240.354935884
 21
1.347453117
 31
0.000000000
  0
LINE
  8
PLAIN_
  6
L_DASH
 62
     7
 10
-233.354935884
 20
-1.515034676
 30
0.000000000
 11
-240.354935884
 21
-1.515034676
 31
0.000000000
  0
LINE
  8
PLAIN_
  6
SOLID
 62
     7
 10
-217.640671968
 20
12.160563469
 30
0.000000000
 11
-217.640671968
 21
37.781138420
 31
0.000000000
  0
ARC
  8
PLAIN_
  6
SOLID
 62
     7
 10
-223.640702486
 20
12.160563469
 30
0.000000000
 40
6.000000000
 50
272.000141441
 51
359.999984518
  0
ARC
  8
PLAIN_
  6
SOLID
 62
     7
 10
-223.640702486
 20
37.781138420
 30
0.000000000
 40
6.000000000
 50
359.999991349
 51
88.000134955
  0
LINE
  8
PLAIN_
  6
CENTER
 62
     7
 10
-190.601884127
 20
-4.377537727
 30
0.000000000
 11
-243.997819185
 21
-4.377537727
 31
0.000000000
  0
LINE
  8
PLAIN_
  6
CENTER
 62
     7
 10
-190.594254732
 20
54.319254875
 30
0.000000000
 11
-243.997819185
 21
54.319254875
 31
0.000000000
  0
LINE
  8
PLAIN_
  6
SOLID
 62
     7
 10
70.859343290
 20
20.345851183
 30
0.000000000
 11
70.859343290
 21
3.345820665
 31
0.000000000
  0
LINE
  8
PLAIN_
  6
SOLID
 62
     7
 10
34.859343290
 20
18.845851183
 30
0.000000000
 11
69.859343290
 21
18.845851183
 31
0.000000000
  0
LINE
  8
PLAIN_
  6
SOLID
 62
     7
 10
42.859343290
 20
19.845851183
 30
0.000000000
 11
42.859343290
 21
3.845851183
 31
0.000000000
  0
ARC
  8
PLAIN_
  6
SOLID
 62
     7
 10
26.859343290
 20
64.845851183
 30
0.000000000
 40
35.000000000
 50
250.536997795
 51
270.000021401
  0
LINE
  8
PLAIN_
  6
CENTER
 62
     7
 10
-154.926057100
 20
11.845850945
 30
0.000000000
 11
-248.640671968
 21
11.845850945
 31
0.000000000
  0
LINE
  8
PLAIN_
  6
SOLID
 62
     7
 10
34.859343290
 20
18.845851183
 30
0.000000000
 11
34.859343290
 21
4.845851183
 31
0.000000000
  0
LINE
  8
PLAIN_
  6
SOLID
 62
     7
 10
26.859343290
 20
29.845851183
 30
0.000000000
 11
72.359343290
 21
29.845851183
 31
0.000000000
  0
LINE
  8
PLAIN_
  6
SOLID
 62
     7
 10
73.859343290
 20
29.345851183
 30
0.000000000
 11
73.859343290
 21
23.859797716
 31
0.000000000
  0
LINE
  8
PLAIN_
  6
SOLID
 62
     7
 10
70.359343290
 20
31.845851183
 30
0.000000000
 11
72.859343247
 21
29.345851226
 31
0.000000000
  0
LINE
  8
PLAIN_
  6
SOLID
 62
     7
 10
72.859343290
 20
29.345851183
 30
0.000000000
 11
73.859343290
 21
29.345851183
 31
0.000000000
  0
LINE
  8
PLAIN_
  6
SOLID
 62
     7
 10
8.859343290
 20
31.845851183
 30
0.000000000
 11
70.359343290
 21
31.845851183
 31
0.000000000
  0
LINE
  8
PLAIN_
  6
SOLID
 62
     7
 10
-166.640671968
 20
-52.654149055
 30
0.000000000
 11
-166.640671968
 21
76.845850945
 31
0.000000000
  0
LINE
  8
PLAIN_
  6
CENTER
 62
     7
 10
164.331870182
 20
65.151253377
 30
0.000000000
 11
492.446368304
 21
-41.459609683
 31
0.000000000
  0
LINE
  8
PLAIN_
  6
CENTER
 62
     7
 10
328.389158964
 20
11.845757021
 30
0.000000000
 11
429.782059918
 21
-127.709598716
 31
0.000000000
  0
LINE
  8
PLAIN_
  6
CENTER
 62
     7
 10
328.389097929
 20
184.345850706
 30
0.000000000
 11
328.389097929
 21
-160.654149294
 31
0.000000000
  0
LINE
  8
PLAIN_
  6
CENTER
 62
     7
 10
328.389158964
 20
11.845944868
 30
0.000000000
 11
219.400311612
 21
-138.164334161
 31
0.000000000
  0
LINE
  8
PLAIN_
  6
CENTER
 62
     7
 10
328.389158964
 20
11.845860860
 30
0.000000000
 11
226.996196975
 21
151.401300605
 31
0.000000000
  0
LINE
  8
PLAIN_
  6
CENTER
 62
     7
 10
155.889158964
 20
11.845851183
 30
0.000000000
 11
488.481962919
 21
11.845851183
 31
0.000000000
  0
LINE
  8
PLAIN_
  6
SOLID
 62
     7
 10
73.859343290
 20
29.345851183
 30
0.000000000
 11
74.859343256
 21
28.345851217
 31
0.000000000
  0
LINE
  8
PLAIN_
  6
SOLID
 62
     7
 10
74.859343290
 20
28.345851183
 30
0.000000000
 11
74.859343290
 21
-4.654148817
 31
0.000000000
  0
LINE
  8
PLAIN_
  6
SOLID
 62
     7
 10
-207.705796480
 20
-53.779629376
 30
0.000000000
 11
-219.640671968
 21
-53.154149055
 31
0.000000000
  0
INSERT
  2
*H1
  8
PLAIN_
 41
1.000000000
 50
0.000000000
 10
0.000000000
 20
0.000000000
 30
0.000000000
  0
LINE
  8
PLAIN_
  6
SOLID
 62
     7
 10
-166.640671968
 20
76.545855522
 30
0.000000000
 11
-166.930558455
 21
76.835742008
 31
0.000000000
  0
LINE
  8
PLAIN_
  6
SOLID
 62
     7
 10
7.859343290
 20
11.845850945
 30
0.000000000
 11
7.859343290
 21
85.845849037
 31
0.000000000
  0
LINE
  8
PLAIN_
  6
SOLID
 62
     7
 10
-17.140656710
 20
-106.154141426
 30
0.000000000
 11
2.859343290
 21
-106.154141426
 31
0.000000000
  0
ARC
  8
PLAIN_
  6
SOLID
 62
     7
 10
-99.418413301
 20
163.668952072
 30
0.000000000
 40
3.000000000
 50
217.423410270
 51
269.000000800
  0
LINE
  8
PLAIN_
  6
SOLID
 62
     7
 10
-99.470770478
 20
160.669408986
 30
0.000000000
 11
-34.053379489
 21
159.527545093
 31
0.000000000
  0
ARC
  8
PLAIN_
  6
SOLID
 62
     7
 10
5.859358549
 20
143.220998327
 30
0.000000000
 40
6.000000000
 50
180.000000000
 51
239.999871443
  0
LINE
  8
PLAIN_
  6
SOLID
 62
     7
 10
-53.420964117
 20
-90.172670713
 30
0.000000000
 11
-20.193013929
 21
-89.592674685
 31
0.000000000
  0
POLYLINE
  8
PLAIN_
  6
SOLID
 62
     7
 66
     1
 10
0.000000000
 20
0.000000000
 30
0.000000000
  0
VERTEX
  8
PLAIN_
 10
-17.140656696
 20
-96.591996536
 30
0.000000000
  0
VERTEX
  8
PLAIN_
 10
-7.277680671
 20
-93.058134915
 30
0.000000000
  0
VERTEX
  8
PLAIN_
 10
-6.889284405
 20
-92.951336967
 30
0.000000000
  0
VERTEX
  8
PLAIN_
 10
-6.097788745
 20
-92.788683663
 30
0.000000000
  0
VERTEX
  8
PLAIN_
 10
-3.582434763
 20
-92.432911027
 30
0.000000000
  0
VERTEX
  8
PLAIN_
 10
-2.667140517
 20
-92.338880004
 30
0.000000000
  0
VERTEX
  8
PLAIN_
 10
-1.749918907
 20
-92.270283610
 30
0.000000000
  0
VERTEX
  8
PLAIN_
 10
-0.830934399
 20
-92.224951451
 30
0.000000000
  0
VERTEX
  8
PLAIN_
 10
1.011665447
 20
-92.195398266
 30
0.000000000
  0
VERTEX
  8
PLAIN_
 10
2.859343290
 20
-92.232857306
 30
0.000000000
  0
SEQEND
  0
INSERT
  2
*H2
  8
PLAIN_
 41
1.000000000
 50
0.000000000
 10
0.000000000
 20
0.000000000
 30
0.000000000
  0
LINE
  8
PLAIN_
  6
SOLID
 62
     7
 10
-165.640671968
 20
-63.154148817
 30
0.000000000
 11
-166.640671934
 21
-62.154148851
 31
0.000000000
  0
LINE
  8
PLAIN_
  6
SOLID
 62
     7
 10
-156.640671968
 20
-63.154148817
 30
0.000000000
 11
-165.640671968
 21
-63.154148817
 31
0.000000000
  0
ARC
  8
PLAIN_
  6
SOLID
 62
     7
 10
328.389128447
 20
11.845850945
 30
0.000000000
 40
80.000000000
 50
320.171530949
 51
146.271188827
  0
ARC
  8
PLAIN_
  6
SOLID
 62
     7
 10
-34.140641451
 20
154.528306616
 30
0.000000000
 40
5.000000000
 50
36.347733590
 51
89.000000800
  0
LINE
  8
PLAIN_
  6
SOLID
 62
     7
 10
2.859343290
 20
138.024854714
 30
0.000000000
 11
2.859343290
 21
11.845850945
 31
0.000000000
  0
LINE
  8
PLAIN_
  6
SOLID
 62
     7
 10
-165.640671968
 20
86.845851183
 30
0.000000000
 11
-166.640671934
 21
85.845851217
 31
0.000000000
  0
LINE
  8
PLAIN_
  6
SOLID
 62
     7
 10
-156.640671968
 20
86.845851183
 30
0.000000000
 11
-165.640671968
 21
86.845851183
 31
0.000000000
  0
LINE
  8
PLAIN_
  6
SOLID
 62
     7
 10
-166.640671968
 20
11.845850945
 30
0.000000000
 11
-166.640671968
 21
85.845850945
 31
0.000000000
  0
LINE
  8
PLAIN_
  6
SOLID
 62
     7
 10
-109.640656710
 20
-137.154141426
 30
0.000000000
 11
-108.666169411
 21
-138.128628725
 31
0.000000000
  0
LINE
  8
PLAIN_
  6
SOLID
 62
     7
 10
-108.640809298
 20
161.828402519
 30
0.000000000
 11
-109.640656754
 21
160.862872075
 31
0.000000000
  0
ARC
  8
PLAIN_
  6
SOLID
 62
     7
 10
-53.159178021
 20
-105.170386141
 30
0.000000000
 40
15.000000000
 50
91.000000000
 51
153.357563469
  0
ARC
  8
PLAIN_
  6
SOLID
 62
     7
 10
-10.140641451
 20
145.455150604
 30
0.000000000
 40
10.000000000
 50
0.000000000
 51
90.000000000
  0
ARC
  8
PLAIN_
  6
SOLID
 62
     7
 10
318.417391063
 20
-126.795923938
 30
0.000000000
 40
5.000000000
 50
234.000013607
 51
265.886120194
  0
LINE
  8
PLAIN_
  6
SOLID
 62
     7
 10
291.532276872
 20
-113.443166981
 30
0.000000000
 11
315.478451019
 21
-130.841076358
 31
0.000000000
  0
ARC
  8
PLAIN_
  6
SOLID
 62
     7
 10
328.389098466
 20
11.845776163
 30
0.000000000
 40
143.999963551
 50
265.886115999
 51
267.213692065
  0
LINE
  8
PLAIN_
  6
SOLID
 62
     7
 10
335.389120807
 20
-131.983894901
 30
0.000000000
 11
335.389120807
 21
-113.154170787
 31
0.000000000
  0
ARC
  8
PLAIN_
  6
SOLID
 62
     7
 10
328.389193581
 20
-113.154178698
 30
0.000000000
 40
7.000000000
 50
0.000046198
 51
180.000046198
  0
LINE
  8
PLAIN_
  6
SOLID
 62
     7
 10
321.389120855
 20
-113.154170772
 30
0.000000000
 11
321.389120855
 21
-131.983894917
 31
0.000000000
  0
ARC
  8
PLAIN_
  6
SOLID
 62
     7
 10
328.389098411
 20
11.845776424
 30
0.000000000
 40
143.999963551
 50
272.786312688
 51
274.113903283
  0
LINE
  8
PLAIN_
  6
SOLID
 62
     7
 10
2.859343290
 20
86.845849037
 30
0.000000000
 11
6.859343290
 21
86.845849037
 31
0.000000000
  0
LINE
  8
PLAIN_
  6
SOLID
 62
     7
 10
6.859343290
 20
86.845849037
 30
0.000000000
 11
7.859343256
 21
85.845849071
 31
0.000000000
  0
ARC
  8
PLAIN_
  6
SOLID
 62
     7
 10
-26.086293536
 20
160.455150604
 30
0.000000000
 40
5.000000000
 50
216.347733590
 51
270.000000000
  0
LINE
  8
PLAIN_
  6
SOLID
 62
     7
 10
341.299827424
 20
-130.841072534
 30
0.000000000
 11
361.552389626
 21
-116.126724793
 31
0.000000000
  0
ARC
  8
PLAIN_
  6
SOLID
 62
     7
 10
338.360974047
 20
-126.795994753
 30
0.000000000
 40
5.000000000
 50
274.113907386
 51
306.000013586
  0
LINE
  8
PLAIN_
  6
SOLID
 62
     7
 10
-108.622740718
 20
-138.154149055
 30
0.000000000
 11
-99.663233473
 21
-138.154149055
 31
0.000000000
  0
LINE
  8
PLAIN_
  6
SOLID
 62
     7
 10
2.859343290
 20
-132.180651665
 30
0.000000000
 11
2.859343290
 21
11.845850945
 31
0.000000000
  0
ARC
  8
PLAIN_
  6
SOLID
 62
     7
 10
-99.663233473
 20
-128.154149055
 30
0.000000000
 40
10.000000000
 50
270.000000000
 51
316.159642695
  0
LINE
  8
PLAIN_
  6
SOLID
 62
     7
 10
6.859343290
 20
-63.154147148
 30
0.000000000
 11
7.859343256
 21
-62.154147182
 31
0.000000000
  0
LINE
  8
PLAIN_
  6
SOLID
 62
     7
 10
2.859343290
 20
-63.154147148
 30
0.000000000
 11
6.859343290
 21
-63.154147148
 31
0.000000000
  0
LINE
  8
PLAIN_
  6
SOLID
 62
     7
 10
-17.140656710
 20
-132.704369380
 30
0.000000000
 11
-17.140656710
 21
-57.754414320
 31
0.000000000
  0
LINE
  8
PLAIN_
  6
SOLID
 62
     7
 10
-17.140656710
 20
-132.704369380
 30
0.000000000
 11
2.859343290
 21
-132.180651665
 31
0.000000000
  0
LINE
  8
PLAIN_
  6
SOLID
 62
     7
 10
-166.640671968
 20
-48.154148817
 30
0.000000000
 11
-166.640671968
 21
73.845851183
 31
0.000000000
  0
ARC
  8
PLAIN_
  6
SOLID
 62
     7
 10
328.389128447
 20
11.845850945
 30
0.000000000
 40
80.000000000
 50
238.211669383
 51
301.788330617
  0
LINE
  8
PLAIN_
  6
SOLID
 62
     7
 10
221.928003953
 20
108.750501766
 30
0.000000000
 11
220.023143333
 21
97.947500361
 31
0.000000000
  0
LINE
  8
PLAIN_
  6
SOLID
 62
     7
 10
220.023143333
 20
97.947500361
 30
0.000000000
 11
228.426386676
 21
90.896341971
 31
0.000000000
  0
LINE
  8
PLAIN_
  6
SOLID
 62
     7
 10
228.426386676
 20
90.896341971
 30
0.000000000
 11
238.734490640
 21
94.648184985
 31
0.000000000
  0
LINE
  8
PLAIN_
  6
SOLID
 62
     7
 10
238.734490640
 20
94.648184985
 30
0.000000000
 11
240.639351260
 21
105.451186390
 31
0.000000000
  0
LINE
  8
PLAIN_
  6
SOLID
 62
     7
 10
240.639351260
 20
105.451186390
 30
0.000000000
 11
232.236107917
 21
112.502344780
 31
0.000000000
  0
LINE
  8
PLAIN_
  6
SOLID
 62
     7
 10
232.236107917
 20
112.502344780
 30
0.000000000
 11
221.928003953
 21
108.750501766
 31
0.000000000
  0
CIRCLE
  8
PLAIN_
  6
SOLID
 62
     7
 10
230.331247296
 20
101.699343375
 30
0.000000000
 40
9.500000000
  0
LINE
  8
PLAIN_
  6
SOLID
 62
     7
 10
-109.640656710
 20
-137.154141426
 30
0.000000000
 11
-108.666169411
 21
-138.128628725
 31
0.000000000
  0
LINE
  8
PLAIN_
  6
L_DASH
 62
     7
 10
196.675441400
 20
-44.525660112
 30
0.000000000
 11
291.532270145
 21
-113.443180267
 31
0.000000000
  0
ARC
  8
PLAIN_
  6
L_DASH
 62
     7
 10
199.614371512
 20
-40.480554058
 30
0.000000000
 40
5.000000000
 50
202.113907407
 51
234.000013607
  0
ARC
  8
PLAIN_
  6
L_DASH
 62
     7
 10
328.389048383
 20
11.845827619
 30
0.000000000
 40
143.999963551
 50
200.786316488
 51
202.113907083
  0
LINE
  8
PLAIN_
  6
L_DASH
 62
     7
 10
193.762043948
 20
-39.257395601
 30
0.000000000
 11
211.670175767
 21
-33.438690850
 31
0.000000000
  0
ARC
  8
PLAIN_
  6
CENTER
 62
     7
 10
328.389128447
 20
11.845850945
 30
0.000000000
 40
127.000000000
 50
191.791509897
 51
204.212278808
  0
ARC
  8
PLAIN_
  6
L_DASH
 62
     7
 10
209.507059937
 20
-26.781274271
 30
0.000000000
 40
7.000000000
 50
288.000046219
 51
108.000046219
  0
LINE
  8
PLAIN_
  6
L_DASH
 62
     7
 10
207.343937874
 20
-20.123899663
 30
0.000000000
 11
189.435806026
 21
-25.942604423
 31
0.000000000
  0
ARC
  8
PLAIN_
  6
L_DASH
 62
     7
 10
328.389048152
 20
11.845827486
 30
0.000000000
 40
143.999963551
 50
193.886119799
 51
195.213695865
  0
ARC
  8
PLAIN_
  6
L_DASH
 62
     7
 10
193.451506712
 20
-21.513213042
 30
0.000000000
 40
5.000000000
 50
162.000008430
 51
193.886115017
  0
LINE
  8
PLAIN_
  6
L_DASH
 62
     7
 10
211.385538015
 20
49.862597400
 30
0.000000000
 11
188.696179311
 21
-19.968068350
 31
0.000000000
  0
LINE
  8
PLAIN_
  6
L_DASH
 62
     7
 10
234.074883758
 20
119.693233946
 30
0.000000000
 11
211.385534875
 21
49.862598420
 31
0.000000000
  0
ARC
  8
PLAIN_
  6
L_DASH
 62
     7
 10
238.830196431
 20
118.148099120
 30
0.000000000
 40
5.000000000
 50
130.113902230
 51
162.000008430
  0
ARC
  8
PLAIN_
  6
L_DASH
 62
     7
 10
328.389079186
 20
11.845898089
 30
0.000000000
 40
143.999963551
 50
128.786316522
 51
130.113907117
  0
LINE
  8
PLAIN_
  6
L_DASH
 62
     7
 10
238.185011727
 20
124.092022843
 30
0.000000000
 11
249.252845866
 21
108.858456035
 31
0.000000000
  0
ARC
  8
PLAIN_
  6
L_DASH
 62
     7
 10
254.915994117
 20
112.972902141
 30
0.000000000
 40
7.000000000
 50
216.000041042
 51
36.000041042
  0
LINE
  8
PLAIN_
  6
L_DASH
 62
     7
 10
260.579083757
 20
117.087449527
 30
0.000000000
 11
249.511249600
 21
132.321016360
 31
0.000000000
  0
ARC
  8
PLAIN_
  6
L_DASH
 62
     7
 10
328.389078988
 20
11.845898268
 30
0.000000000
 40
143.999963551
 50
121.886119833
 51
123.213695899
  0
ARC
  8
PLAIN_
  6
L_DASH
 62
     7
 10
254.964768168
 20
129.870629105
 30
0.000000000
 40
5.000000000
 50
90.000009753
 51
121.886116339
  0
LINE
  8
PLAIN_
  6
L_DASH
 62
     7
 10
328.389120970
 20
134.870676346
 30
0.000000000
 11
254.964813840
 21
134.870676346
 31
0.000000000
  0
LINE
  8
PLAIN_
  6
L_DASH
 62
     7
 10
401.813396320
 20
134.870679647
 30
0.000000000
 11
328.389120970
 21
134.870679647
 31
0.000000000
  0
ARC
  8
PLAIN_
  6
L_DASH
 62
     7
 10
401.813355479
 20
129.870652851
 30
0.000000000
 40
5.000000000
 50
58.113903553
 51
90.000009753
  0
ARC
  8
PLAIN_
  6
L_DASH
 62
     7
 10
328.389121527
 20
11.845889929
 30
0.000000000
 40
143.999963551
 50
56.786316543
 51
58.113907138
  0
LINE
  8
PLAIN_
  6
L_DASH
 62
     7
 10
407.266992555
 20
132.321016184
 30
0.000000000
 11
396.199158400
 21
117.087449387
 31
0.000000000
  0
ARC
  8
PLAIN_
  6
L_DASH
 62
     7
 10
401.862235913
 20
112.972926328
 30
0.000000000
 40
7.000000000
 50
144.000042364
 51
324.000042364
  0
LINE
  8
PLAIN_
  6
L_DASH
 62
     7
 10
407.525396290
 20
108.858455860
 30
0.000000000
 11
418.593230463
 21
124.092022681
 31
0.000000000
  0
ARC
  8
PLAIN_
  6
L_DASH
 62
     7
 10
328.389121635
 20
11.845890172
 30
0.000000000
 40
143.999963551
 50
49.886119854
 51
51.213695920
  0
ARC
  8
PLAIN_
  6
L_DASH
 62
     7
 10
417.948068022
 20
118.148257581
 30
0.000000000
 40
5.000000000
 50
18.000013553
 51
49.886120139
  0
LINE
  8
PLAIN_
  6
L_DASH
 62
     7
 10
468.082051578
 20
-19.968034340
 30
0.000000000
 11
422.703345222
 21
119.693263150
 31
0.000000000
  0
ARC
  8
PLAIN_
  6
L_DASH
 62
     7
 10
463.326808948
 20
-21.513037942
 30
0.000000000
 40
5.000000000
 50
346.113907352
 51
18.000013553
  0
ARC
  8
PLAIN_
  6
L_DASH
 62
     7
 10
328.389178554
 20
11.845786338
 30
0.000000000
 40
143.999963551
 50
344.786311365
 51
346.113901961
  0
LINE
  8
PLAIN_
  6
L_DASH
 62
     7
 10
467.342435813
 20
-25.942604682
 30
0.000000000
 11
449.434303994
 21
-20.123899932
 31
0.000000000
  0
ARC
  8
PLAIN_
  6
L_DASH
 62
     7
 10
447.271221262
 20
-26.781211723
 30
0.000000000
 40
7.000000000
 50
72.000046164
 51
252.000046164
  0
LINE
  8
PLAIN_
  6
L_DASH
 62
     7
 10
445.108066074
 20
-33.438691110
 30
0.000000000
 11
463.016197921
 21
-39.257395870
 31
0.000000000
  0
ARC
  8
PLAIN_
  6
L_DASH
 62
     7
 10
328.389178820
 20
11.845786310
 30
0.000000000
 40
143.999963551
 50
337.886114677
 51
339.213690742
  0
ARC
  8
PLAIN_
  6
L_DASH
 62
     7
 10
457.163957017
 20
-40.480533607
 30
0.000000000
 40
5.000000000
 50
306.000013586
 51
337.886120173
  0
LINE
  8
PLAIN_
  6
L_DASH
 62
     7
 10
361.552387703
 20
-116.126722111
 30
0.000000000
 11
460.102824310
 21
-44.525638762
 31
0.000000000
  0
LINE
  8
PLAIN_
  6
SOLID
 62
     7
 10
-153.640671968
 20
94.845850945
 30
0.000000000
 11
-153.640671968
 21
153.319163615
 31
0.000000000
  0
LINE
  8
PLAIN_
  6
SOLID
 62
     7
 10
-110.640519381
 20
161.828366518
 30
0.000000000
 11
-109.640671929
 21
160.862820848
 31
0.000000000
  0
LINE
  8
PLAIN_
  6
SOLID
 62
     7
 10
-109.640671968
 20
-137.154131651
 30
0.000000000
 11
-110.623521085
 21
-138.136965524
 31
0.000000000
  0
LINE
  8
PLAIN_
  6
SOLID
 62
     7
 10
-156.640671968
 20
11.845850945
 30
0.000000000
 11
-156.640671968
 21
-68.154149055
 31
0.000000000
  0
LINE
  8
PLAIN_
  6
SOLID
 62
     7
 10
-156.640671968
 20
11.845850945
 30
0.000000000
 11
-156.640671968
 21
91.845850945
 31
0.000000000
  0
LINE
  8
PLAIN_
  6
SOLID
 62
     7
 10
-110.640519897
 20
161.828366479
 30
0.000000000
 11
-117.658156434
 21
161.828366479
 31
0.000000000
  0
ARC
  8
PLAIN_
  6
SOLID
 62
     7
 10
-156.640671968
 20
94.845850945
 30
0.000000000
 40
3.000000000
 50
270.000000000
 51
0.000000000
  0
LINE
  8
PLAIN_
  6
SOLID
 62
     7
 10
-166.640671968
 20
11.845850945
 30
0.000000000
 11
-166.640671968
 21
-62.154156685
 31
0.000000000
  0
LINE
  8
PLAIN_
  6
SOLID
 62
     7
 10
-119.640671968
 20
159.845850945
 30
0.000000000
 11
-117.658156434
 21
161.828366479
 31
0.000000000
  0
LINE
  8
PLAIN_
  6
SOLID
 62
     7
 10
-119.642511524
 20
159.845754538
 30
0.000000000
 11
-148.902351750
 21
158.312311289
 31
0.000000000
  0
LINE
  8
PLAIN_
  6
SOLID
 62
     7
 10
-119.640671968
 20
-136.154149055
 30
0.000000000
 11
-117.658156434
 21
-138.136664589
 31
0.000000000
  0
LINE
  8
PLAIN_
  6
SOLID
 62
     7
 10
-119.642511524
 20
-136.154052648
 30
0.000000000
 11
-131.797679837
 21
-135.517027270
 31
0.000000000
  0
LINE
  8
PLAIN_
  6
SOLID
 62
     7
 10
-134.640671968
 20
-72.154013855
 30
0.000000000
 11
-134.640671968
 21
-132.521138666
 31
0.000000000
  0
ARC
  8
PLAIN_
  6
SOLID
 62
     7
 10
-131.640671968
 20
-132.521138666
 30
0.000000000
 40
3.000000000
 50
180.000000000
 51
267.000000000
  0
LINE
  8
PLAIN_
  6
SOLID
 62
     7
 10
-110.640519897
 20
-138.136664589
 30
0.000000000
 11
-117.658156434
 21
-138.136664589
 31
0.000000000
  0
ARC
  8
PLAIN_
  6
SOLID
 62
     7
 10
-148.640671968
 20
153.319163615
 30
0.000000000
 40
5.000000000
 50
93.000000000
 51
180.000000000
  0
ARC
  8
PLAIN_
  6
SOLID
 62
     7
 10
-137.640671968
 20
-72.154013855
 30
0.000000000
 40
3.000000000
 50
0.000000000
 51
87.000000000
  0
LINE
  8
PLAIN_
  6
SOLID
 62
     7
 10
-156.640671105
 20
-68.154149055
 30
0.000000000
 11
-137.483664100
 21
-69.158125250
 31
0.000000000
  0
LINE
  8
PLAIN_
  6
SOLID
 62
     7
 10
275.139786815
 20
143.673693319
 30
0.000000000
 11
264.831682852
 21
139.921850304
 31
0.000000000
  0
ARC
  8
PLAIN_
  6
SOLID
 62
     7
 10
328.389128447
 20
11.845850945
 30
0.000000000
 40
150.000000000
 50
17.999995674
 51
53.999996676
  0
CIRCLE
  8
PLAIN_
  6
SOLID
 62
     7
 10
273.234926195
 20
132.870691914
 30
0.000000000
 40
9.500000000
  0
LINE
  8
PLAIN_
  6
SOLID
 62
     7
 10
264.831682852
 20
139.921850304
 30
0.000000000
 11
262.926822231
 21
129.118848900
 31
0.000000000
  0
LINE
  8
PLAIN_
  6
SOLID
 62
     7
 10
262.926822231
 20
129.118848900
 30
0.000000000
 11
271.330065575
 21
122.067690509
 31
0.000000000
  0
LINE
  8
PLAIN_
  6
SOLID
 62
     7
 10
271.330065575
 20
122.067690509
 30
0.000000000
 11
281.638169539
 21
125.819533524
 31
0.000000000
  0
LINE
  8
PLAIN_
  6
SOLID
 62
     7
 10
281.638169539
 20
125.819533524
 30
0.000000000
 11
283.543030159
 21
136.622534929
 31
0.000000000
  0
LINE
  8
PLAIN_
  6
SOLID
 62
     7
 10
283.543030159
 20
136.622534929
 30
0.000000000
 11
275.139786815
 21
143.673693319
 31
0.000000000
  0
LINE
  8
PLAIN_
  6
SOLID
 62
     7
 10
198.148940231
 20
7.592816155
 30
0.000000000
 11
187.840836267
 21
3.840973141
 31
0.000000000
  0
CIRCLE
  8
PLAIN_
  6
SOLID
 62
     7
 10
196.244079611
 20
-3.210185249
 30
0.000000000
 40
9.500000000
  0
LINE
  8
PLAIN_
  6
SOLID
 62
     7
 10
187.840836267
 20
3.840973141
 30
0.000000000
 11
185.935975647
 21
-6.962028264
 31
0.000000000
  0
LINE
  8
PLAIN_
  6
SOLID
 62
     7
 10
185.935975647
 20
-6.962028264
 30
0.000000000
 11
194.339218990
 21
-14.013186654
 31
0.000000000
  0
LINE
  8
PLAIN_
  6
SOLID
 62
     7
 10
194.339218990
 20
-14.013186654
 30
0.000000000
 11
204.647322954
 21
-10.261343640
 31
0.000000000
  0
LINE
  8
PLAIN_
  6
SOLID
 62
     7
 10
204.647322954
 20
-10.261343640
 30
0.000000000
 11
206.552183574
 21
0.541657765
 31
0.000000000
  0
ARC
  8
PLAIN_
  6
SOLID
 62
     7
 10
328.389128447
 20
11.845850945
 30
0.000000000
 40
150.000000000
 50
342.000003324
 51
18.000004326
  0
LINE
  8
PLAIN_
  6
SOLID
 62
     7
 10
206.552183574
 20
0.541657765
 30
0.000000000
 11
198.148940231
 21
7.592816155
 31
0.000000000
  0
LINE
  8
PLAIN_
  6
SOLID
 62
     7
 10
214.536687776
 20
-42.843478160
 30
0.000000000
 11
204.228583812
 21
-46.595321175
 31
0.000000000
  0
ARC
  8
PLAIN_
  6
SOLID
 62
     7
 10
328.389128447
 20
11.845850945
 30
0.000000000
 40
75.000000000
 50
342.000003324
 51
18.000004326
  0
CIRCLE
  8
PLAIN_
  6
SOLID
 62
     7
 10
212.631827156
 20
-53.646479565
 30
0.000000000
 40
9.500000000
  0
LINE
  8
PLAIN_
  6
SOLID
 62
     7
 10
204.228583812
 20
-46.595321175
 30
0.000000000
 11
202.323723192
 21
-57.398322579
 31
0.000000000
  0
LINE
  8
PLAIN_
  6
SOLID
 62
     7
 10
202.323723192
 20
-57.398322579
 30
0.000000000
 11
210.726966535
 21
-64.449480969
 31
0.000000000
  0
LINE
  8
PLAIN_
  6
SOLID
 62
     7
 10
210.726966535
 20
-64.449480969
 30
0.000000000
 11
221.035070499
 21
-60.697637955
 31
0.000000000
  0
LINE
  8
PLAIN_
  6
SOLID
 62
     7
 10
221.035070499
 20
-60.697637955
 30
0.000000000
 11
222.939931119
 21
-49.894636550
 31
0.000000000
  0
LINE
  8
PLAIN_
  6
SOLID
 62
     7
 10
222.939931119
 20
-49.894636550
 30
0.000000000
 11
214.536687776
 21
-42.843478160
 31
0.000000000
  0
LINE
  8
PLAIN_
  6
SOLID
 62
     7
 10
446.051290665
 20
-42.843477616
 30
0.000000000
 11
435.743186702
 21
-46.595320631
 31
0.000000000
  0
CIRCLE
  8
PLAIN_
  6
SOLID
 62
     7
 10
444.146430045
 20
-53.646479021
 30
0.000000000
 40
9.500000000
  0
LINE
  8
PLAIN_
  6
SOLID
 62
     7
 10
435.743186702
 20
-46.595320631
 30
0.000000000
 11
433.838326081
 21
-57.398322036
 31
0.000000000
  0
LINE
  8
PLAIN_
  6
SOLID
 62
     7
 10
433.838326081
 20
-57.398322036
 30
0.000000000
 11
442.241569425
 21
-64.449480426
 31
0.000000000
  0
ARC
  8
PLAIN_
  6
SOLID
 62
     7
 10
328.389128447
 20
11.845850945
 30
0.000000000
 40
150.000000000
 50
89.999996026
 51
125.999997028
  0
LINE
  8
PLAIN_
  6
SOLID
 62
     7
 10
442.241569425
 20
-64.449480426
 30
0.000000000
 11
452.549673389
 21
-60.697637411
 31
0.000000000
  0
LINE
  8
PLAIN_
  6
SOLID
 62
     7
 10
452.549673389
 20
-60.697637411
 30
0.000000000
 11
454.454534009
 21
-49.894636006
 31
0.000000000
  0
LINE
  8
PLAIN_
  6
SOLID
 62
     7
 10
454.454534009
 20
-49.894636006
 30
0.000000000
 11
446.051290665
 21
-42.843477616
 31
0.000000000
  0
LINE
  8
PLAIN_
  6
SOLID
 62
     7
 10
462.439038604
 20
7.592822310
 30
0.000000000
 11
452.130934640
 21
3.840979296
 31
0.000000000
  0
CIRCLE
  8
PLAIN_
  6
SOLID
 62
     7
 10
460.534177984
 20
-3.210179094
 30
0.000000000
 40
9.500000000
  0
LINE
  8
PLAIN_
  6
SOLID
 62
     7
 10
452.130934640
 20
3.840979296
 30
0.000000000
 11
450.226074020
 21
-6.962022109
 31
0.000000000
  0
ARC
  8
PLAIN_
  6
SOLID
 62
     7
 10
328.389128447
 20
11.845850945
 30
0.000000000
 40
150.000000000
 50
54.000004736
 51
90.000005738
  0
LINE
  8
PLAIN_
  6
SOLID
 62
     7
 10
450.226074020
 20
-6.962022109
 30
0.000000000
 11
458.629317363
 21
-14.013180499
 31
0.000000000
  0
LINE
  8
PLAIN_
  6
SOLID
 62
     7
 10
458.629317363
 20
-14.013180499
 30
0.000000000
 11
468.937421327
 21
-10.261337485
 31
0.000000000
  0
LINE
  8
PLAIN_
  6
SOLID
 62
     7
 10
468.937421327
 20
-10.261337485
 30
0.000000000
 11
470.842281947
 21
0.541663920
 31
0.000000000
  0
LINE
  8
PLAIN_
  6
SOLID
 62
     7
 10
470.842281947
 20
0.541663920
 30
0.000000000
 11
462.439038604
 21
7.592822310
 31
0.000000000
  0
LINE
  8
PLAIN_
  6
SOLID
 62
     7
 10
385.448187591
 20
143.673695017
 30
0.000000000
 11
375.140083627
 21
139.921852003
 31
0.000000000
  0
CIRCLE
  8
PLAIN_
  6
SOLID
 62
     7
 10
383.543326971
 20
132.870693613
 30
0.000000000
 40
9.500000000
  0
LINE
  8
PLAIN_
  6
SOLID
 62
     7
 10
375.140083627
 20
139.921852003
 30
0.000000000
 11
373.235223007
 21
129.118850598
 31
0.000000000
  0
LINE
  8
PLAIN_
  6
SOLID
 62
     7
 10
373.235223007
 20
129.118850598
 30
0.000000000
 11
381.638466351
 21
122.067692208
 31
0.000000000
  0
LINE
  8
PLAIN_
  6
SOLID
 62
     7
 10
381.638466351
 20
122.067692208
 30
0.000000000
 11
391.946570314
 21
125.819535222
 31
0.000000000
  0
LINE
  8
PLAIN_
  6
SOLID
 62
     7
 10
391.946570314
 20
125.819535222
 30
0.000000000
 11
393.851430935
 21
136.622536627
 31
0.000000000
  0
LINE
  8
PLAIN_
  6
SOLID
 62
     7
 10
393.851430935
 20
136.622536627
 30
0.000000000
 11
385.448187591
 21
143.673695017
 31
0.000000000
  0
LINE
  8
PLAIN_
  6
SOLID
 62
     7
 10
428.351867450
 20
112.502347800
 30
0.000000000
 11
418.043763486
 21
108.750504785
 31
0.000000000
  0
CIRCLE
  8
PLAIN_
  6
SOLID
 62
     7
 10
426.447006830
 20
101.699346395
 30
0.000000000
 40
9.500000000
  0
LINE
  8
PLAIN_
  6
SOLID
 62
     7
 10
418.043763486
 20
108.750504785
 30
0.000000000
 11
416.138902866
 21
97.947503381
 31
0.000000000
  0
LINE
  8
PLAIN_
  6
SOLID
 62
     7
 10
416.138902866
 20
97.947503381
 30
0.000000000
 11
424.542146209
 21
90.896344991
 31
0.000000000
  0
LINE
  8
PLAIN_
  6
SOLID
 62
     7
 10
424.542146209
 20
90.896344991
 30
0.000000000
 11
434.850250173
 21
94.648188005
 31
0.000000000
  0
LINE
  8
PLAIN_
  6
SOLID
 62
     7
 10
434.850250173
 20
94.648188005
 30
0.000000000
 11
436.755110793
 21
105.451189410
 31
0.000000000
  0
LINE
  8
PLAIN_
  6
SOLID
 62
     7
 10
436.755110793
 20
105.451189410
 30
0.000000000
 11
428.351867450
 21
112.502347800
 31
0.000000000
  0
POLYLINE
  8
PLAIN_
  6
SOLID
 62
     7
 66
     1
 10
0.000000000
 20
0.000000000
 30
0.000000000
  0
VERTEX
  8
PLAIN_
 10
281.747465849
 20
-127.262425423
 30
0.000000000
  0
VERTEX
  8
PLAIN_
 10
284.312323392
 20
-123.798723491
 30
0.000000000
  0
VERTEX
  8
PLAIN_
 10
285.566270643
 20
-122.051529525
 30
0.000000000
  0
VERTEX
  8
PLAIN_
 10
286.786040068
 20
-120.285923958
 30
0.000000000
  0
VERTEX
  8
PLAIN_
 10
287.642835448
 20
-118.984829192
 30
0.000000000
  0
VERTEX
  8
PLAIN_
 10
288.457336838
 20
-117.656364228
 30
0.000000000
  0
VERTEX
  8
PLAIN_
 10
288.843042083
 20
-116.977372046
 30
0.000000000
  0
VERTEX
  8
PLAIN_
 10
289.211351586
 20
-116.286142264
 30
0.000000000
  0
VERTEX
  8
PLAIN_
 10
289.559991266
 20
-115.580876531
 30
0.000000000
  0
VERTEX
  8
PLAIN_
 10
289.886687040
 20
-114.859776497
 30
0.000000000
  0
VERTEX
  8
PLAIN_
 10
290.621220820
 20
-113.061189344
 30
0.000000000
  0
VERTEX
  8
PLAIN_
 10
291.004844628
 20
-112.189372247
 30
0.000000000
  0
VERTEX
  8
PLAIN_
 10
291.213085546
 20
-111.772041460
 30
0.000000000
  0
VERTEX
  8
PLAIN_
 10
291.436980009
 20
-111.371556282
 30
0.000000000
  0
VERTEX
  8
PLAIN_
 10
291.712290674
 20
-110.942418211
 30
0.000000000
  0
VERTEX
  8
PLAIN_
 10
292.011100894
 20
-110.538037126
 30
0.000000000
  0
VERTEX
  8
PLAIN_
 10
292.332410180
 20
-110.157377547
 30
0.000000000
  0
VERTEX
  8
PLAIN_
 10
292.675218044
 20
-109.799403997
 30
0.000000000
  0
VERTEX
  8
PLAIN_
 10
293.038523996
 20
-109.463080996
 30
0.000000000
  0
VERTEX
  8
PLAIN_
 10
293.421327547
 20
-109.147373065
 30
0.000000000
  0
VERTEX
  8
PLAIN_
 10
293.822628210
 20
-108.851244726
 30
0.000000000
  0
VERTEX
  8
PLAIN_
 10
294.241425494
 20
-108.573660500
 30
0.000000000
  0
VERTEX
  8
PLAIN_
 10
294.676718912
 20
-108.313584908
 30
0.000000000
  0
VERTEX
  8
PLAIN_
 10
295.127507974
 20
-108.069982472
 30
0.000000000
  0
VERTEX
  8
PLAIN_
 10
296.071571074
 20
-107.628055149
 30
0.000000000
  0
VERTEX
  8
PLAIN_
 10
297.065610886
 20
-107.239594702
 30
0.000000000
  0
VERTEX
  8
PLAIN_
 10
298.101623498
 20
-106.896317300
 30
0.000000000
  0
VERTEX
  8
PLAIN_
 10
299.171605000
 20
-106.589939113
 30
0.000000000
  0
VERTEX
  8
PLAIN_
 10
300.267551480
 20
-106.312176310
 30
0.000000000
  0
VERTEX
  8
PLAIN_
 10
304.750908970
 20
-105.321602333
 30
0.000000000
  0
VERTEX
  8
PLAIN_
 10
305.856621682
 20
-105.062658995
 30
0.000000000
  0
VERTEX
  8
PLAIN_
 10
306.940275908
 20
-104.782628059
 30
0.000000000
  0
VERTEX
  8
PLAIN_
 10
308.686286059
 20
-104.300738655
 30
0.000000000
  0
VERTEX
  8
PLAIN_
 10
309.552937368
 20
-104.113694058
 30
0.000000000
  0
VERTEX
  8
PLAIN_
 10
309.988987223
 20
-104.048379175
 30
0.000000000
  0
VERTEX
  8
PLAIN_
 10
310.428496122
 20
-104.007481575
 30
0.000000000
  0
VERTEX
  8
PLAIN_
 10
311.038396634
 20
-103.995636069
 30
0.000000000
  0
VERTEX
  8
PLAIN_
 10
311.655463975
 20
-104.029559888
 30
0.000000000
  0
VERTEX
  8
PLAIN_
 10
312.278039478
 20
-104.101167954
 30
0.000000000
  0
VERTEX
  8
PLAIN_
 10
312.904464481
 20
-104.202375187
 30
0.000000000
  0
VERTEX
  8
PLAIN_
 10
314.162228320
 20
-104.461246835
 30
0.000000000
  0
VERTEX
  8
PLAIN_
 10
315.415486173
 20
-104.741494197
 30
0.000000000
  0
VERTEX
  8
PLAIN_
 10
316.650968720
 20
-104.978436636
 30
0.000000000
  0
VERTEX
  8
PLAIN_
 10
317.257897590
 20
-105.060455811
 30
0.000000000
  0
VERTEX
  8
PLAIN_
 10
317.855406639
 20
-105.107393517
 30
0.000000000
  0
VERTEX
  8
PLAIN_
 10
318.441837202
 20
-105.111164674
 30
0.000000000
  0
VERTEX
  8
PLAIN_
 10
319.015530612
 20
-105.063684203
 30
0.000000000
  0
VERTEX
  8
PLAIN_
 10
319.574828206
 20
-104.956867025
 30
0.000000000
  0
VERTEX
  8
PLAIN_
 10
320.118071318
 20
-104.782628059
 30
0.000000000
  0
VERTEX
  8
PLAIN_
 10
320.569647937
 20
-104.576426344
 30
0.000000000
  0
VERTEX
  8
PLAIN_
 10
321.011094071
 20
-104.325307120
 30
0.000000000
  0
VERTEX
  8
PLAIN_
 10
321.445253664
 20
-104.039659736
 30
0.000000000
  0
VERTEX
  8
PLAIN_
 10
322.732452630
 20
-103.079442096
 30
0.000000000
  0
VERTEX
  8
PLAIN_
 10
323.606291533
 20
-102.457127571
 30
0.000000000
  0
VERTEX
  8
PLAIN_
 10
324.104359259
 20
-102.152566100
 30
0.000000000
  0
VERTEX
  8
PLAIN_
 10
324.613676505
 20
-101.879792602
 30
0.000000000
  0
VERTEX
  8
PLAIN_
 10
325.133520773
 20
-101.636544444
 30
0.000000000
  0
VERTEX
  8
PLAIN_
 10
325.663169571
 20
-101.420558996
 30
0.000000000
  0
VERTEX
  8
PLAIN_
 10
326.201900402
 20
-101.229573625
 30
0.000000000
  0
VERTEX
  8
PLAIN_
 10
326.748990772
 20
-101.061325701
 30
0.000000000
  0
VERTEX
  8
PLAIN_
 10
327.865360149
 20
-100.783991665
 30
0.000000000
  0
VERTEX
  8
PLAIN_
 10
329.006497744
 20
-100.570455837
 30
0.000000000
  0
VERTEX
  8
PLAIN_
 10
330.166623597
 20
-100.402617165
 30
0.000000000
  0
VERTEX
  8
PLAIN_
 10
334.502611963
 20
-99.914988277
 30
0.000000000
  0
VERTEX
  8
PLAIN_
 10
335.488929421
 20
-99.829211443
 30
0.000000000
  0
VERTEX
  8
PLAIN_
 10
336.468765795
 20
-99.775325460
 30
0.000000000
  0
VERTEX
  8
PLAIN_
 10
337.439574472
 20
-99.765977179
 30
0.000000000
  0
VERTEX
  8
PLAIN_
 10
338.398808838
 20
-99.813813454
 30
0.000000000
  0
VERTEX
  8
PLAIN_
 10
339.343922283
 20
-99.931481138
 30
0.000000000
  0
VERTEX
  8
PLAIN_
 10
339.810387843
 20
-100.020453899
 30
0.000000000
  0
VERTEX
  8
PLAIN_
 10
340.272368193
 20
-100.131627083
 30
0.000000000
  0
VERTEX
  8
PLAIN_
 10
341.008471946
 20
-100.360140956
 30
0.000000000
  0
VERTEX
  8
PLAIN_
 10
341.730708591
 20
-100.645188320
 30
0.000000000
  0
VERTEX
  8
PLAIN_
 10
342.437749493
 20
-100.981227376
 30
0.000000000
  0
VERTEX
  8
PLAIN_
 10
343.128266018
 20
-101.362716325
 30
0.000000000
  0
VERTEX
  8
PLAIN_
 10
343.800929531
 20
-101.784113370
 30
0.000000000
  0
VERTEX
  8
PLAIN_
 10
344.454411398
 20
-102.239876711
 30
0.000000000
  0
VERTEX
  8
PLAIN_
 10
345.087382983
 20
-102.724464551
 30
0.000000000
  0
VERTEX
  8
PLAIN_
 10
345.698515654
 20
-103.232335091
 30
0.000000000
  0
VERTEX
  8
PLAIN_
 10
346.711519529
 20
-104.157832928
 30
0.000000000
  0
VERTEX
  8
PLAIN_
 10
347.678821786
 20
-105.122213212
 30
0.000000000
  0
VERTEX
  8
PLAIN_
 10
349.574309111
 20
-107.108128548
 30
0.000000000
  0
VERTEX
  8
PLAIN_
 10
350.462130296
 20
-108.005793268
 30
0.000000000
  0
VERTEX
  8
PLAIN_
 10
350.920501706
 20
-108.438421316
 30
0.000000000
  0
VERTEX
  8
PLAIN_
 10
351.391620217
 20
-108.852555058
 30
0.000000000
  0
VERTEX
  8
PLAIN_
 10
351.877815745
 20
-109.242425922
 30
0.000000000
  0
VERTEX
  8
PLAIN_
 10
352.381418208
 20
-109.602265335
 30
0.000000000
  0
VERTEX
  8
PLAIN_
 10
352.904757521
 20
-109.926304725
 30
0.000000000
  0
VERTEX
  8
PLAIN_
 10
353.450163603
 20
-110.208775520
 30
0.000000000
  0
VERTEX
  8
PLAIN_
 10
354.026192482
 20
-110.450469486
 30
0.000000000
  0
VERTEX
  8
PLAIN_
 10
354.619440228
 20
-110.659792107
 30
0.000000000
  0
VERTEX
  8
PLAIN_
 10
355.826205221
 20
-111.046378544
 30
0.000000000
  0
VERTEX
  8
PLAIN_
 10
356.424028921
 20
-111.256169972
 30
0.000000000
  0
VERTEX
  8
PLAIN_
 10
357.007684390
 20
-111.498645281
 30
0.000000000
  0
VERTEX
  8
PLAIN_
 10
357.569324856
 20
-111.790068277
 30
0.000000000
  0
VERTEX
  8
PLAIN_
 10
358.101103544
 20
-112.146702766
 30
0.000000000
  0
VERTEX
  8
PLAIN_
 10
359.209284696
 20
-113.106721525
 30
0.000000000
  0
VERTEX
  8
PLAIN_
 10
359.491711722
 20
-113.319402703
 30
0.000000000
  0
VERTEX
  8
PLAIN_
 10
359.785628325
 20
-113.496795217
 30
0.000000000
  0
VERTEX
  8
PLAIN_
 10
360.095702948
 20
-113.626719438
 30
0.000000000
  0
VERTEX
  8
PLAIN_
 10
360.426604033
 20
-113.696995735
 30
0.000000000
  0
VERTEX
  8
PLAIN_
 10
360.626284827
 20
-113.683732660
 30
0.000000000
  0
VERTEX
  8
PLAIN_
 10
360.836184360
 20
-113.641726466
 30
0.000000000
  0
VERTEX
  8
PLAIN_
 10
361.035080351
 20
-113.627354906
 30
0.000000000
  0
VERTEX
  8
PLAIN_
 10
361.123770055
 20
-113.648150162
 30
0.000000000
  0
VERTEX
  8
PLAIN_
 10
361.201750517
 20
-113.696995735
 30
0.000000000
  0
VERTEX
  8
PLAIN_
 10
361.756606845
 20
-114.177082262
 30
0.000000000
  0
VERTEX
  8
PLAIN_
 10
363.414859496
 20
-115.486475220
 30
0.000000000
  0
VERTEX
  8
PLAIN_
 10
363.952473984
 20
-115.936984581
 30
0.000000000
  0
VERTEX
  8
PLAIN_
 10
364.476004796
 20
-116.423350086
 30
0.000000000
  0
VERTEX
  8
PLAIN_
 10
364.981542647
 20
-116.962871910
 30
0.000000000
  0
VERTEX
  8
PLAIN_
 10
365.928832106
 20
-118.185115642
 30
0.000000000
  0
VERTEX
  8
PLAIN_
 10
366.408921823
 20
-118.768252529
 30
0.000000000
  0
VERTEX
  8
PLAIN_
 10
366.903212503
 20
-119.325543743
 30
0.000000000
  0
VERTEX
  8
PLAIN_
 10
367.409469245
 20
-119.860272137
 30
0.000000000
  0
VERTEX
  8
PLAIN_
 10
368.448941318
 20
-120.875171875
 30
0.000000000
  0
VERTEX
  8
PLAIN_
 10
371.622113441
 20
-123.719780130
 30
0.000000000
  0
VERTEX
  8
PLAIN_
 10
372.638492116
 20
-124.688828646
 30
0.000000000
  0
VERTEX
  8
PLAIN_
 10
373.128872148
 20
-125.192034323
 30
0.000000000
  0
VERTEX
  8
PLAIN_
 10
373.604399443
 20
-125.712071419
 30
0.000000000
  0
VERTEX
  8
PLAIN_
 10
374.159712102
 20
-126.369534831
 30
0.000000000
  0
VERTEX
  8
PLAIN_
 10
374.691473841
 20
-127.053375359
 30
0.000000000
  0
VERTEX
  8
PLAIN_
 10
375.201341427
 20
-127.760297542
 30
0.000000000
  0
VERTEX
  8
PLAIN_
 10
375.690971629
 20
-128.487005918
 30
0.000000000
  0
VERTEX
  8
PLAIN_
 10
376.162021213
 20
-129.230205026
 30
0.000000000
  0
VERTEX
  8
PLAIN_
 10
376.616146947
 20
-129.986599403
 30
0.000000000
  0
VERTEX
  8
PLAIN_
 10
377.480253935
 20
-131.525792122
 30
0.000000000
  0
VERTEX
  8
PLAIN_
 10
378.189936421
 20
-132.873633201
 30
0.000000000
  0
VERTEX
  8
PLAIN_
 10
378.872692575
 20
-134.228927811
 30
0.000000000
  0
VERTEX
  8
PLAIN_
 10
380.193327665
 20
-136.951939583
 30
0.000000000
  0
SEQEND
  0
ARC
  8
PLAIN_
  6
SOLID
 62
     7
 10
328.389128447
 20
11.845850945
 30
0.000000000
 40
150.000000000
 50
161.999998343
 51
197.999999345
  0
ARC
  8
PLAIN_
  6
SOLID
 62
     7
 10
328.389128447
 20
11.845850945
 30
0.000000000
 40
150.000000000
 50
126.000005088
 51
162.000006090
  0
ARC
  8
PLAIN_
  6
SOLID
 62
     7
 10
328.389128447
 20
11.845850945
 30
0.000000000
 40
75.000000000
 50
126.000005088
 51
162.000006090
  0
ARC
  8
PLAIN_
  6
SOLID
 62
     7
 10
328.389128447
 20
11.845850945
 30
0.000000000
 40
74.000000000
 50
126.000005088
 51
162.000006090
  0
ARC
  8
PLAIN_
  6
SOLID
 62
     7
 10
328.389128447
 20
11.845850945
 30
0.000000000
 40
75.000000000
 50
245.048698907
 51
294.951301093
  0
ARC
  8
PLAIN_
  6
SOLID
 62
     7
 10
328.389128447
 20
11.845850945
 30
0.000000000
 40
74.000000000
 50
246.768543495
 51
293.231456505
  0
ARC
  8
PLAIN_
  6
SOLID
 62
     7
 10
328.389128447
 20
11.845850945
 30
0.000000000
 40
150.000000000
 50
198.000005005
 51
234.000006007
  0
ARC
  8
PLAIN_
  6
SOLID
 62
     7
 10
328.389128447
 20
11.845850945
 30
0.000000000
 40
150.000000000
 50
305.999994262
 51
341.999995264
  0
ARC
  8
PLAIN_
  6
SOLID
 62
     7
 10
328.389128447
 20
11.845850945
 30
0.000000000
 40
75.000000000
 50
325.001100734
 51
341.999995264
  0
ARC
  8
PLAIN_
  6
SOLID
 62
     7
 10
328.389128447
 20
11.845850945
 30
0.000000000
 40
74.000000000
 50
326.122663166
 51
341.999995264
  0
LINE
  8
PLAIN_
  6
SOLID
 62
     7
 10
222.811379770
 20
26.698089307
 30
0.000000000
 11
234.245008396
 21
61.887180463
 31
0.000000000
  0
LINE
  8
PLAIN_
  6
SOLID
 62
     7
 10
251.343075302
 20
17.427579609
 30
0.000000000
 11
262.776703929
 21
52.616670766
 31
0.000000000
  0
LINE
  8
PLAIN_
  6
SOLID
 62
     7
 10
262.134664401
 20
53.876744274
 30
0.000000000
 11
235.505081904
 21
62.529219991
 31
0.000000000
  0
CIRCLE
  8
PLAIN_
  6
SOLID
 62
     7
 10
391.869932892
 20
99.219683533
 30
0.000000000
 40
9.315000534
  0
CIRCLE
  8
PLAIN_
  6
SOLID
 62
     7
 10
391.869932892
 20
99.219683533
 30
0.000000000
 40
10.480000496
  0
LINE
  8
PLAIN_
  6
SOLID
 62
     7
 10
447.933702662
 20
87.533927392
 30
0.000000000
 11
379.883567611
 21
75.534852542
 31
0.000000000
  0
ARC
  8
PLAIN_
  6
SOLID
 62
     7
 10
328.389128447
 20
11.845850945
 30
0.000000000
 40
80.000000000
 50
177.728801693
 51
219.828469051
  0
CIRCLE
  8
PLAIN_
  6
SOLID
 62
     7
 10
391.869930861
 20
99.219681950
 30
0.000000000
 40
16.000000000
  0
LINE
  8
PLAIN_
  6
SOLID
 62
     7
 10
250.083001795
 20
16.785540081
 30
0.000000000
 11
223.453419298
 21
25.438015799
 31
0.000000000
  0
LINE
  8
PLAIN_
  6
SOLID
 62
     7
 10
448.541471284
 20
84.087100257
 30
0.000000000
 11
383.698082809
 21
72.653461348
 31
0.000000000
  0
ARC
  8
PLAIN_
  6
SOLID
 62
     7
 10
328.389128447
 20
11.845850945
 30
0.000000000
 40
148.000000000
 50
18.000000000
 51
28.496263080
  0
ARC
  8
PLAIN_
  6
SOLID
 62
     7
 10
449.670184439
 20
77.685849862
 30
0.000000000
 40
6.500000000
 50
28.496263080
 51
100.000000000
  0
ARC
  8
PLAIN_
  6
SOLID
 62
     7
 10
328.389128447
 20
11.845850945
 30
0.000000000
 40
144.500000000
 50
18.000000000
 51
28.496263080
  0
ARC
  8
PLAIN_
  6
SOLID
 62
     7
 10
328.389128447
 20
11.845850945
 30
0.000000000
 40
75.000000000
 50
17.999995674
 51
65.500000285
  0
ARC
  8
PLAIN_
  6
SOLID
 62
     7
 10
328.389128447
 20
11.845850945
 30
0.000000000
 40
148.000000000
 50
79.503736920
 51
100.496263080
  0
ARC
  8
PLAIN_
  6
SOLID
 62
     7
 10
328.389128447
 20
11.845850945
 30
0.000000000
 40
75.000000000
 50
65.500000285
 51
125.999997028
  0
ARC
  8
PLAIN_
  6
SOLID
 62
     7
 10
328.389128447
 20
11.845850945
 30
0.000000000
 40
74.000000000
 50
54.000000135
 51
125.999997028
  0
ARC
  8
PLAIN_
  6
SOLID
 62
     7
 10
328.389128447
 20
11.845850945
 30
0.000000000
 40
75.000000000
 50
209.500000273
 51
214.998899266
  0
ARC
  8
PLAIN_
  6
SOLID
 62
     7
 10
449.670184439
 20
77.685849862
 30
0.000000000
 40
10.000000000
 50
28.496263080
 51
100.000000000
  0
ARC
  8
PLAIN_
  6
SOLID
 62
     7
 10
328.389128447
 20
11.845850945
 30
0.000000000
 40
148.000000000
 50
7.503736920
 51
28.496263080
  0
ARC
  8
PLAIN_
  6
SOLID
 62
     7
 10
328.389128447
 20
11.845850945
 30
0.000000000
 40
148.000000000
 50
151.503736920
 51
172.496263080
  0
ARC
  8
PLAIN_
  6
SOLID
 62
     7
 10
328.389128447
 20
11.845850945
 30
0.000000000
 40
74.000000000
 50
161.999998343
 51
213.877336834
  0
ARC
  8
PLAIN_
  6
SOLID
 62
     7
 10
328.389128447
 20
11.845850945
 30
0.000000000
 40
148.000000000
 50
278.673966441
 51
295.503736920
  0
ARC
  8
PLAIN_
  6
SOLID
 62
     7
 10
328.389128447
 20
11.845850945
 30
0.000000000
 40
148.000000000
 50
172.496263080
 51
223.503736920
  0
ARC
  8
PLAIN_
  6
SOLID
 62
     7
 10
328.389128447
 20
11.845850945
 30
0.000000000
 40
148.000000000
 50
100.496263080
 51
151.503736920
  0
ARC
  8
PLAIN_
  6
SOLID
 62
     7
 10
328.389128447
 20
11.845850945
 30
0.000000000
 40
148.000000000
 50
28.496263080
 51
79.503736920
  0
ARC
  8
PLAIN_
  6
SOLID
 62
     7
 10
328.389128447
 20
11.845850945
 30
0.000000000
 40
74.000000000
 50
209.500000273
 51
213.877336834
  0
ARC
  8
PLAIN_
  6
SOLID
 62
     7
 10
328.389128447
 20
11.845850945
 30
0.000000000
 40
75.000000000
 50
161.999998343
 51
214.998899266
  0
ARC
  8
PLAIN_
  6
SOLID
 62
     7
 10
378.863795091
 20
81.318269898
 30
0.000000000
 40
5.872635891
 50
234.000000135
 51
280.000000000
  0
LINE
  8
PLAIN_
  6
SOLID
 62
     7
 10
469.591055682
 20
20.879448542
 30
0.000000000
 11
407.484460719
 21
-9.411961786
 31
0.000000000
  0
ARC
  8
PLAIN_
  6
SOLID
 62
     7
 10
410.058854849
 20
-14.690251962
 30
0.000000000
 40
5.872635891
 50
116.000000000
 51
161.999999865
  0
ARC
  8
PLAIN_
  6
SOLID
 62
     7
 10
465.207344215
 20
29.867389005
 30
0.000000000
 40
10.000000000
 50
296.000000000
 51
7.503736920
  0
ARC
  8
PLAIN_
  6
SOLID
 62
     7
 10
328.389128447
 20
11.845850945
 30
0.000000000
 40
148.000000000
 50
7.503736920
 51
18.000000000
  0
LINE
  8
PLAIN_
  6
SOLID
 62
     7
 10
437.314071776
 20
-78.458893457
 30
0.000000000
 11
404.873625250
 21
-17.447287128
 31
0.000000000
  0
CIRCLE
  8
PLAIN_
  6
SOLID
 62
     7
 10
225.675028219
 20
-21.527982650
 30
0.000000000
 40
10.480000496
  0
ARC
  8
PLAIN_
  6
SOLID
 62
     7
 10
410.058854974
 20
-14.690251578
 30
0.000000000
 40
5.872635891
 50
162.000000135
 51
208.000000000
  0
ARC
  8
PLAIN_
  6
SOLID
 62
     7
 10
428.484595847
 20
-83.153609085
 30
0.000000000
 40
10.000000000
 50
316.496263080
 51
28.000000000
  0
ARC
  8
PLAIN_
  6
SOLID
 62
     7
 10
328.389128447
 20
11.845850945
 30
0.000000000
 40
148.000000000
 50
306.000000000
 51
316.496263080
  0
ARC
  8
PLAIN_
  6
SOLID
 62
     7
 10
328.389128447
 20
11.845850945
 30
0.000000000
 40
148.000000000
 50
295.503736920
 51
306.000000000
  0
ARC
  8
PLAIN_
  6
SOLID
 62
     7
 10
387.807783465
 20
-112.707043184
 30
0.000000000
 40
10.000000000
 50
224.000000000
 51
295.503736920
  0
LINE
  8
PLAIN_
  6
SOLID
 62
     7
 10
380.614385462
 20
-119.653626888
 30
0.000000000
 11
332.613548974
 21
-69.947305618
 31
0.000000000
  0
LINE
  8
PLAIN_
  6
SOLID
 62
     7
 10
276.163871431
 20
-119.653626888
 30
0.000000000
 11
324.164707919
 21
-69.947305618
 31
0.000000000
  0
ARC
  8
PLAIN_
  6
SOLID
 62
     7
 10
250.392018785
 20
17.736596599
 30
0.000000000
 40
1.000000000
 50
252.000000269
 51
342.000000269
  0
ARC
  8
PLAIN_
  6
SOLID
 62
     7
 10
328.389128648
 20
-74.026781297
 30
0.000000000
 40
5.872635891
 50
90.000000135
 51
136.000000000
  0
ARC
  8
PLAIN_
  6
SOLID
 62
     7
 10
268.970473428
 20
-112.707043184
 30
0.000000000
 40
10.000000000
 50
244.496263080
 51
316.000000000
  0
ARC
  8
PLAIN_
  6
SOLID
 62
     7
 10
328.389128447
 20
11.845850945
 30
0.000000000
 40
148.000000000
 50
234.000000000
 51
244.496263080
  0
ARC
  8
PLAIN_
  6
SOLID
 62
     7
 10
328.389128447
 20
11.845850945
 30
0.000000000
 40
148.000000000
 50
223.503736920
 51
234.000000000
  0
ARC
  8
PLAIN_
  6
SOLID
 62
     7
 10
228.293661046
 20
-83.153609085
 30
0.000000000
 40
10.000000000
 50
152.000000000
 51
223.503736920
  0
ARC
  8
PLAIN_
  6
SOLID
 62
     7
 10
223.762436288
 20
26.389072317
 30
0.000000000
 40
1.000000000
 50
162.000000269
 51
252.000000269
  0
ARC
  8
PLAIN_
  6
SOLID
 62
     7
 10
235.196064914
 20
61.578163473
 30
0.000000000
 40
1.000000000
 50
72.000000269
 51
162.000000269
  0
LINE
  8
PLAIN_
  6
SOLID
 62
     7
 10
219.464185117
 20
-78.458893457
 30
0.000000000
 11
251.904631644
 21
-17.447287128
 31
0.000000000
  0
LINE
  8
PLAIN_
  6
SOLID
 62
     7
 10
187.187201211
 20
20.879448542
 30
0.000000000
 11
249.293796175
 21
-9.411961786
 31
0.000000000
  0
ARC
  8
PLAIN_
  6
SOLID
 62
     7
 10
246.719402044
 20
-14.690251962
 30
0.000000000
 40
5.872635891
 50
18.000000135
 51
64.000000000
  0
ARC
  8
PLAIN_
  6
SOLID
 62
     7
 10
191.570912679
 20
29.867389005
 30
0.000000000
 40
10.000000000
 50
172.496263080
 51
244.000000000
  0
ARC
  8
PLAIN_
  6
SOLID
 62
     7
 10
328.389128447
 20
11.845850945
 30
0.000000000
 40
148.000000000
 50
162.000000000
 51
172.496263080
  0
ARC
  8
PLAIN_
  6
SOLID
 62
     7
 10
261.825647411
 20
52.925687756
 30
0.000000000
 40
1.000000000
 50
342.000000269
 51
72.000000269
  0
ARC
  8
PLAIN_
  6
SOLID
 62
     7
 10
328.389128447
 20
11.845850945
 30
0.000000000
 40
148.000000000
 50
151.503736920
 51
162.000000000
  0
ARC
  8
PLAIN_
  6
SOLID
 62
     7
 10
207.108072454
 20
77.685849862
 30
0.000000000
 40
10.000000000
 50
80.000000000
 51
151.503736920
  0
CIRCLE
  8
PLAIN_
  6
SOLID
 62
     7
 10
225.675028219
 20
-21.527982650
 30
0.000000000
 40
9.315000534
  0
LINE
  8
PLAIN_
  6
SOLID
 62
     7
 10
208.844554231
 20
87.533927392
 30
0.000000000
 11
248.374295336
 21
80.563767495
 31
0.000000000
  0
CIRCLE
  8
PLAIN_
  6
SOLID
 62
     7
 10
225.675032691
 20
-21.527988404
 30
0.000000000
 40
16.000000000
  0
ARC
  8
PLAIN_
  6
SOLID
 62
     7
 10
303.249475841
 20
147.536668124
 30
0.000000000
 40
10.000000000
 50
100.496263080
 51
172.000000000
  0
ARC
  8
PLAIN_
  6
SOLID
 62
     7
 10
328.389128447
 20
11.845850945
 30
0.000000000
 40
148.000000000
 50
90.000000000
 51
100.496263080
  0
ARC
  8
PLAIN_
  6
SOLID
 62
     7
 10
328.389128447
 20
11.845850945
 30
0.000000000
 40
148.000000000
 50
79.503736920
 51
90.000000000
  0
ARC
  8
PLAIN_
  6
SOLID
 62
     7
 10
353.528781053
 20
147.536668124
 30
0.000000000
 40
10.000000000
 50
8.000000000
 51
79.503736920
  0
LINE
  8
PLAIN_
  6
SOLID
 62
     7
 10
363.431461740
 20
148.928399134
 30
0.000000000
 11
373.048311614
 21
80.500956713
 31
0.000000000
  0
ARC
  8
PLAIN_
  6
SOLID
 62
     7
 10
328.389128447
 20
11.845850945
 30
0.000000000
 40
148.000000000
 50
316.496263080
 51
7.503736920
  0
ARC
  8
PLAIN_
  6
SOLID
 62
     7
 10
410.058854974
 20
-14.690251578
 30
0.000000000
 40
5.872635891
 50
162.000000135
 51
208.000000000
  0
ARC
  8
PLAIN_
  6
SOLID
 62
     7
 10
328.389128447
 20
11.845850945
 30
0.000000000
 40
148.000000000
 50
244.496263080
 51
260.761344885
  0
ARC
  8
PLAIN_
  6
SOLID
 62
     7
 10
328.389128245
 20
-74.026781297
 30
0.000000000
 40
5.872635891
 50
44.000000000
 51
89.999999865
  0
ARC
  8
PLAIN_
  6
SOLID
 62
     7
 10
328.389128648
 20
-74.026781297
 30
0.000000000
 40
5.872635891
 50
90.000000135
 51
136.000000000
  0
ARC
  8
PLAIN_
  6
SOLID
 62
     7
 10
246.719401919
 20
-14.690251578
 30
0.000000000
 40
5.872635891
 50
332.000000000
 51
17.999999865
  0
ARC
  8
PLAIN_
  6
SOLID
 62
     7
 10
246.719402044
 20
-14.690251962
 30
0.000000000
 40
5.872635891
 50
18.000000135
 51
64.000000000
  0
ARC
  8
PLAIN_
  6
SOLID
 62
     7
 10
277.914461803
 20
81.318269898
 30
0.000000000
 40
5.872635891
 50
260.000000000
 51
305.999999865
  0
ARC
  8
PLAIN_
  6
SOLID
 62
     7
 10
277.914461476
 20
81.318269661
 30
0.000000000
 40
5.872635891
 50
306.000000135
 51
352.000000269
  0
ARC
  8
PLAIN_
  6
SOLID
 62
     7
 10
378.863795417
 20
81.318269661
 30
0.000000000
 40
5.872635891
 50
188.000000000
 51
233.999999865
  0
ARC
  8
PLAIN_
  6
SOLID
 62
     7
 10
328.389128447
 20
11.845850945
 30
0.000000000
 40
74.000000000
 50
342.000003324
 51
54.000000135
  0
LINE
  8
PLAIN_
  6
SOLID
 62
     7
 10
293.346795153
 20
148.928399134
 30
0.000000000
 11
284.366631001
 21
85.031211023
 31
0.000000000
  0
LINE
  8
PLAIN_
  6
SOLID
 62
     7
 10
296.812733394
 20
148.441293280
 30
0.000000000
 11
288.367146362
 21
88.347819029
 31
0.000000000
  0
ARC
  8
PLAIN_
  6
SOLID
 62
     7
 10
259.360094265
 20
57.932643413
 30
0.000000000
 40
3.000000000
 50
252.000000269
 51
326.271198845
  0
LINE
  8
PLAIN_
  6
SOLID
 62
     7
 10
284.366630692
 20
85.031211067
 30
0.000000000
 11
283.729944995
 21
80.500956781
 31
0.000000000
  0
LINE
  8
PLAIN_
  6
SOLID
 62
     7
 10
248.374295336
 20
80.563767495
 30
0.000000000
 11
276.894689282
 21
75.534852542
 31
0.000000000
  0
ARC
  8
PLAIN_
  6
SOLID
 62
     7
 10
245.454329720
 20
15.135100114
 30
0.000000000
 40
3.000000000
 50
357.728801693
 51
72.000000269
  0
LINE
  8
PLAIN_
  6
SOLID
 62
     7
 10
208.236785609
 20
84.087100257
 30
0.000000000
 11
251.879526132
 21
76.391707590
 31
0.000000000
  0
LINE
  8
PLAIN_
  6
CENTER
 62
     7
 10
237.077227536
 20
22.062834458
 30
0.000000000
 11
248.510856163
 21
57.251925615
 31
0.000000000
  0
LINE
  8
PLAIN_
  6
CENTER
 62
     7
 10
252.764765593
 20
52.715360009
 30
0.000000000
 11
242.803992928
 21
55.951811186
 31
0.000000000
  0
LINE
  8
PLAIN_
  6
CENTER
 62
     7
 10
241.874753217
 20
23.658410564
 30
0.000000000
 11
234.747158232
 21
25.974306524
 31
0.000000000
  0
CIRCLE
  8
PLAIN_
  6
SOLID
 62
     7
 10
247.583805193
 20
54.398756061
 30
0.000000000
 40
1.049999952
  0
CIRCLE
  8
PLAIN_
  6
SOLID
 62
     7
 10
238.004278506
 20
24.916004011
 30
0.000000000
 40
1.049999952
  0
ARC
  8
PLAIN_
  6
SOLID
 62
     7
 10
328.389128447
 20
11.845850945
 30
0.000000000
 40
150.000000000
 50
233.999997020
 51
263.291572192
  0
LINE
  8
PLAIN_
  6
CENTER
 62
     7
 10
483.027033200
 20
62.090784071
 30
0.000000000
 11
152.041548931
 21
-45.452918935
 31
0.000000000
  0
ARC
  8
PLAIN_
  6
SOLID
 62
     7
 10
328.389128447
 20
11.845850945
 30
0.000000000
 40
150.000000000
 50
277.818679454
 51
306.000006078
  0
ARC
  8
PLAIN_
  6
SOLID
 62
     7
 10
382.656193743
 20
78.562307866
 30
0.000000000
 40
6.000000000
 50
230.875145818
 51
280.000000000
  0
LINE
  8
PLAIN_
  6
SOLID
 62
     7
 10
452.724815955
 20
84.406517011
 30
0.000000000
 11
453.532986134
 21
86.222806265
 31
0.000000000
  0
ARC
  8
PLAIN_
  6
SOLID
 62
     7
 10
411.507055970
 20
-10.231515843
 30
0.000000000
 40
6.000000000
 50
116.000000000
 51
165.124854182
  0
LINE
  8
PLAIN_
  6
SOLID
 62
     7
 10
468.056756669
 20
24.025227704
 30
0.000000000
 11
408.876829089
 21
-4.838751565
 31
0.000000000
  0
ARC
  8
PLAIN_
  6
SOLID
 62
     7
 10
465.207344215
 20
29.867389005
 30
0.000000000
 40
6.500000000
 50
296.000000000
 51
7.503736920
  0
LINE
  8
PLAIN_
  6
SOLID
 62
     7
 10
471.628902059
 20
26.225722424
 30
0.000000000
 11
473.350313505
 21
25.231344064
 31
0.000000000
  0
ARC
  8
PLAIN_
  6
SOLID
 62
     7
 10
328.389128447
 20
11.845850945
 30
0.000000000
 40
144.500000000
 50
7.503736920
 51
18.000000000
  0
LINE
  8
PLAIN_
  6
SOLID
 62
     7
 10
288.367146362
 20
88.347819029
 30
0.000000000
 11
287.649061171
 21
83.238377402
 31
0.000000000
  0
ARC
  8
PLAIN_
  6
SOLID
 62
     7
 10
281.707452759
 20
84.073416008
 30
0.000000000
 40
6.000000000
 50
302.875145818
 51
352.000000000
  0
ARC
  8
PLAIN_
  6
SOLID
 62
     7
 10
303.249475841
 20
147.536668124
 30
0.000000000
 40
6.500000000
 50
100.496263080
 51
172.000000000
  0
LINE
  8
PLAIN_
  6
SOLID
 62
     7
 10
297.801674604
 20
152.518595695
 30
0.000000000
 11
296.324019194
 21
153.848475456
 31
0.000000000
  0
ARC
  8
PLAIN_
  6
SOLID
 62
     7
 10
328.389128447
 20
11.845850945
 30
0.000000000
 40
144.500000000
 50
90.000000000
 51
100.496263080
  0
LINE
  8
PLAIN_
  6
SOLID
 62
     7
 10
358.976582289
 20
152.518595695
 30
0.000000000
 11
360.454237700
 21
153.848475456
 31
0.000000000
  0
ARC
  8
PLAIN_
  6
SOLID
 62
     7
 10
353.528781053
 20
147.536668124
 30
0.000000000
 40
6.500000000
 50
8.000000000
 51
79.503736920
  0
ARC
  8
PLAIN_
  6
SOLID
 62
     7
 10
328.389128447
 20
11.845850945
 30
0.000000000
 40
144.500000000
 50
79.503736920
 51
90.000000000
  0
LINE
  8
PLAIN_
  6
SOLID
 62
     7
 10
359.965523499
 20
148.441293280
 30
0.000000000
 11
369.129195722
 21
83.238377402
 31
0.000000000
  0
ARC
  8
PLAIN_
  6
SOLID
 62
     7
 10
375.070804134
 20
84.073416008
 30
0.000000000
 40
6.000000000
 50
188.000000000
 51
237.124854182
  0
LINE
  8
PLAIN_
  6
SOLID
 62
     7
 10
188.721500225
 20
24.025227704
 30
0.000000000
 11
247.901427804
 21
-4.838751565
 31
0.000000000
  0
ARC
  8
PLAIN_
  6
SOLID
 62
     7
 10
245.271200924
 20
-10.231515843
 30
0.000000000
 40
6.000000000
 50
14.875145818
 51
64.000000000
  0
ARC
  8
PLAIN_
  6
SOLID
 62
     7
 10
191.570912679
 20
29.867389005
 30
0.000000000
 40
6.500000000
 50
172.496263080
 51
244.000000000
  0
LINE
  8
PLAIN_
  6
SOLID
 62
     7
 10
185.149354834
 20
26.225722424
 30
0.000000000
 11
183.427943388
 21
25.231344064
 31
0.000000000
  0
ARC
  8
PLAIN_
  6
SOLID
 62
     7
 10
328.389128447
 20
11.845850945
 30
0.000000000
 40
144.500000000
 50
162.000000000
 51
172.496263080
  0
LINE
  8
PLAIN_
  6
SOLID
 62
     7
 10
204.053440938
 20
84.406517011
 30
0.000000000
 11
203.245270759
 21
86.222806265
 31
0.000000000
  0
ARC
  8
PLAIN_
  6
SOLID
 62
     7
 10
207.108072454
 20
77.685849862
 30
0.000000000
 40
6.500000000
 50
80.000000000
 51
151.503736920
  0
ARC
  8
PLAIN_
  6
SOLID
 62
     7
 10
328.389128447
 20
11.845850945
 30
0.000000000
 40
144.500000000
 50
151.503736920
 51
162.000000000
  0
LINE
  8
PLAIN_
  6
SOLID
 62
     7
 10
251.879526132
 20
76.391707590
 30
0.000000000
 11
273.080174084
 21
72.653461348
 31
0.000000000
  0
ARC
  8
PLAIN_
  6
SOLID
 62
     7
 10
274.122063150
 20
78.562307866
 30
0.000000000
 40
6.000000000
 50
260.000000000
 51
309.124854182
  0
LINE
  8
PLAIN_
  6
SOLID
 62
     7
 10
273.646182130
 20
-117.222322592
 30
0.000000000
 11
319.385061049
 21
-69.858326953
 31
0.000000000
  0
ARC
  8
PLAIN_
  6
SOLID
 62
     7
 10
323.701099851
 20
-74.026277176
 30
0.000000000
 40
6.000000000
 50
86.875145818
 51
136.000000000
  0
ARC
  8
PLAIN_
  6
SOLID
 62
     7
 10
268.970473428
 20
-112.707043184
 30
0.000000000
 40
6.500000000
 50
244.496263080
 51
316.000000000
  0
LINE
  8
PLAIN_
  6
SOLID
 62
     7
 10
270.449533655
 20
-119.939644478
 30
0.000000000
 11
270.863298284
 21
-121.884083863
 31
0.000000000
  0
ARC
  8
PLAIN_
  6
SOLID
 62
     7
 10
328.389128447
 20
11.845850945
 30
0.000000000
 40
144.500000000
 50
234.000000000
 51
244.496263080
  0
LINE
  8
PLAIN_
  6
SOLID
 62
     7
 10
220.957993709
 20
-83.981935931
 30
0.000000000
 11
218.980861660
 21
-84.189287199
 31
0.000000000
  0
ARC
  8
PLAIN_
  6
SOLID
 62
     7
 10
228.293661046
 20
-83.153609085
 30
0.000000000
 40
6.500000000
 50
152.000000000
 51
223.503736920
  0
ARC
  8
PLAIN_
  6
SOLID
 62
     7
 10
328.389128447
 20
11.845850945
 30
0.000000000
 40
144.500000000
 50
223.503736920
 51
234.000000000
  0
LINE
  8
PLAIN_
  6
SOLID
 62
     7
 10
222.554501692
 20
-80.102043927
 30
0.000000000
 11
253.466247493
 21
-21.965505509
 31
0.000000000
  0
ARC
  8
PLAIN_
  6
SOLID
 62
     7
 10
248.168561936
 20
-19.148676132
 30
0.000000000
 40
6.000000000
 50
332.000000000
 51
21.124854182
  0
LINE
  8
PLAIN_
  6
SOLID
 62
     7
 10
434.223755201
 20
-80.102043927
 30
0.000000000
 11
403.312009400
 21
-21.965505509
 31
0.000000000
  0
ARC
  8
PLAIN_
  6
SOLID
 62
     7
 10
408.609694957
 20
-19.148676132
 30
0.000000000
 40
6.000000000
 50
158.875145818
 51
208.000000000
  0
ARC
  8
PLAIN_
  6
SOLID
 62
     7
 10
428.484595847
 20
-83.153609085
 30
0.000000000
 40
6.500000000
 50
316.496263080
 51
28.000000000
  0
LINE
  8
PLAIN_
  6
SOLID
 62
     7
 10
435.820263184
 20
-83.981935931
 30
0.000000000
 11
437.797395234
 21
-84.189287199
 31
0.000000000
  0
ARC
  8
PLAIN_
  6
SOLID
 62
     7
 10
328.389128447
 20
11.845850945
 30
0.000000000
 40
144.500000000
 50
306.000000000
 51
316.496263080
  0
LINE
  8
PLAIN_
  6
SOLID
 62
     7
 10
386.328723238
 20
-119.939644478
 30
0.000000000
 11
385.914958609
 21
-121.884083863
 31
0.000000000
  0
ARC
  8
PLAIN_
  6
SOLID
 62
     7
 10
387.807783465
 20
-112.707043184
 30
0.000000000
 40
6.500000000
 50
224.000000000
 51
295.503736920
  0
ARC
  8
PLAIN_
  6
SOLID
 62
     7
 10
328.389128447
 20
11.845850945
 30
0.000000000
 40
144.500000000
 50
295.503736920
 51
306.000000000
  0
LINE
  8
PLAIN_
  6
SOLID
 62
     7
 10
383.132074763
 20
-117.222322592
 30
0.000000000
 11
337.393195845
 21
-69.858326953
 31
0.000000000
  0
ARC
  8
PLAIN_
  6
SOLID
 62
     7
 10
333.077157042
 20
-74.026277176
 30
0.000000000
 40
6.000000000
 50
44.000000000
 51
93.124854182
  0
LINE
  8
PLAIN_
  6
SOLID
 62
     7
 10
-207.705796480
 20
-28.528668735
 30
0.000000000
 11
-219.640671968
 21
-29.154149055
 31
0.000000000
  0
ARC
  8
PLAIN_
  6
SOLID
 62
     7
 10
-243.640641451
 20
-9.350316048
 30
0.000000000
 40
3.000000000
 50
359.999308330
 51
60.000286716
  0
LINE
  8
PLAIN_
  6
SOLID
 62
     7
 10
-240.640702486
 20
15.845850945
 30
0.000000000
 11
-240.640702486
 21
-9.654149055
 31
0.000000000
  0
ARC
  8
PLAIN_
  6
SOLID
 62
     7
 10
-240.640702486
 20
-4.154149055
 30
0.000000000
 40
3.000000000
 50
180.000000000
 51
240.000254387
  0
ARC
  8
PLAIN_
  6
SOLID
 62
     7
 10
-222.640702486
 20
-9.654149055
 30
0.000000000
 40
18.000000000
 50
180.000000000
 51
218.010600207
  0
ARC
  8
PLAIN_
  6
SOLID
 62
     7
 10
-227.354935884
 20
-13.781682014
 30
0.000000000
 40
1.000000000
 50
180.000000000
 51
267.999269342
  0
ARC
  8
PLAIN_
  6
SOLID
 62
     7
 10
-244.701813936
 20
-26.896752153
 30
0.000000000
 40
10.000000000
 50
360.000000000
 51
38.010610225
  0
ARC
  8
PLAIN_
  6
SOLID
 62
     7
 10
-227.354935884
 20
5.026606560
 30
0.000000000
 40
1.000000000
 50
92.000730658
 51
180.000000000
  0
LINE
  8
PLAIN_
  6
SOLID
 62
     7
 10
-187.701814024
 20
-56.154149143
 30
0.000000000
 11
-184.201813630
 21
-52.654149055
 31
0.000000000
  0
LINE
  8
PLAIN_
  6
SOLID
 62
     7
 10
-228.354935884
 20
-13.781682014
 30
0.000000000
 11
-228.354935884
 21
5.026606560
 31
0.000000000
  0
ARC
  8
PLAIN_
  6
SOLID
 62
     7
 10
-227.354935884
 20
-13.781682014
 30
0.000000000
 40
1.000000000
 50
180.000000000
 51
267.999269342
  0
LINE
  8
PLAIN_
  6
SOLID
 62
     7
 10
-166.640671968
 20
-52.654149055
 30
0.000000000
 11
-166.640671968
 21
22.285139877
 31
0.000000000
  0
LINE
  8
PLAIN_
  6
SOLID
 62
     7
 10
-232.701813849
 20
-56.154149143
 30
0.000000000
 11
-234.701813936
 21
-54.154149230
 31
0.000000000
  0
LINE
  8
PLAIN_
  6
SOLID
 62
     7
 10
-234.701813936
 20
-54.154149230
 30
0.000000000
 11
-234.701813936
 21
-26.896713107
 31
0.000000000
  0
ARC
  8
PLAIN_
  6
SOLID
 62
     7
 10
-219.640671968
 20
-41.154149055
 30
0.000000000
 40
12.000000000
 50
90.000000000
 51
270.000000000
  0
LINE
  8
PLAIN_
  6
SOLID
 62
     7
 10
-187.701814024
 20
-56.154149143
 30
0.000000000
 11
-232.701813849
 21
-56.154149143
 31
0.000000000
  0
LINE
  8
PLAIN_
  6
SOLID
 62
     7
 10
-217.640671968
 20
12.160563469
 30
0.000000000
 11
-217.640671968
 21
23.925233791
 31
0.000000000
  0
ARC
  8
PLAIN_
  6
SOLID
 62
     7
 10
-223.640702486
 20
12.160563469
 30
0.000000000
 40
6.000000000
 50
272.000141441
 51
359.999984518
  0
LINE
  8
PLAIN_
  6
SOLID
 62
     7
 10
-166.640671968
 20
-48.154148817
 30
0.000000000
 11
-166.640671968
 21
73.845851183
 31
0.000000000
  0
LINE
  8
PLAIN_
  6
SOLID
 62
     7
 10
-227.389847994
 20
6.025996208
 30
0.000000000
 11
-186.535965755
 21
7.766932428
 31
0.000000000
  0
LINE
  8
PLAIN_
  6
SOLID
 62
     7
 10
-227.389847994
 20
-14.781071663
 30
0.000000000
 11
-186.535965755
 21
-16.522007883
 31
0.000000000
  0
ARC
  8
PLAIN_
  6
SOLID
 62
     7
 10
-186.640671968
 20
-19.520161629
 30
0.000000000
 40
3.000000000
 50
0.000008651
 51
87.999851729
  0
ARC
  8
PLAIN_
  6
SOLID
 62
     7
 10
-186.640671968
 20
10.765116692
 30
0.000000000
 40
3.000000000
 50
272.000127780
 51
359.999991349
  0
LINE
  8
PLAIN_
  6
SOLID
 62
     7
 10
-183.640671968
 20
-48.618062019
 30
0.000000000
 11
-183.640671968
 21
-19.520161629
 31
0.000000000
  0
LINE
  8
PLAIN_
  6
SOLID
 62
     7
 10
-166.640671968
 20
-52.654149055
 30
0.000000000
 11
-184.201813630
 21
-52.654149055
 31
0.000000000
  0
LINE
  8
PLAIN_
  6
CENTER
 62
     7
 10
-190.601884127
 20
-4.377537727
 30
0.000000000
 11
-243.997819185
 21
-4.377537727
 31
0.000000000
  0
LINE
  8
PLAIN_
  6
CENTER
 62
     7
 10
-154.926057100
 20
11.845850945
 30
0.000000000
 11
-248.640671968
 21
11.845850945
 31
0.000000000
  0
ARC
  8
PLAIN_
  6
SOLID
 62
     7
 10
-229.640702486
 20
38.802332878
 30
0.000000000
 40
6.000000000
 50
286.957762348
 51
359.999991349
  0
ARC
  8
PLAIN_
  6
SOLID
 62
     7
 10
-222.640702486
 20
15.845850945
 30
0.000000000
 40
18.000000000
 50
106.957762348
 51
180.000010018
  0
ARC
  8
PLAIN_
  6
SOLID
 62
     7
 10
-240.640702486
 20
27.845850945
 30
0.000000000
 40
3.000000000
 50
90.000017986
 51
180.000000000
  0
LINE
  8
PLAIN_
  6
SOLID
 62
     7
 10
-243.640702486
 20
-4.154149055
 30
0.000000000
 11
-243.640702486
 21
27.845850945
 31
0.000000000
  0
ARC
  8
PLAIN_
  6
SOLID
 62
     7
 10
-186.640671968
 20
39.490898100
 30
0.000000000
 40
3.000000000
 50
0.000000000
 51
88.000008413
  0
LINE
  8
PLAIN_
  6
SOLID
 62
     7
 10
-227.389847994
 20
43.915713310
 30
0.000000000
 11
-186.535973919
 21
42.489070597
 31
0.000000000
  0
ARC
  8
PLAIN_
  6
SOLID
 62
     7
 10
-180.640671968
 20
73.355103592
 30
0.000000000
 40
3.000000000
 50
92.000174209
 51
180.000000000
  0
LINE
  8
PLAIN_
  6
SOLID
 62
     7
 10
-180.745379575
 20
76.353275755
 30
0.000000000
 11
-166.930558389
 21
76.835741997
 31
0.000000000
  0
LINE
  8
PLAIN_
  6
SOLID
 62
     7
 10
-183.640671968
 20
10.765116692
 30
0.000000000
 11
-183.640671968
 21
39.490898100
 31
0.000000000
  0
ARC
  8
PLAIN_
  6
SOLID
 62
     7
 10
-186.640671968
 20
69.147617894
 30
0.000000000
 40
3.000000000
 50
272.000000333
 51
0.000000000
  0
LINE
  8
PLAIN_
  6
SOLID
 62
     7
 10
-183.640671968
 20
69.147617894
 30
0.000000000
 11
-183.640671968
 21
73.355103592
 31
0.000000000
  0
LINE
  8
PLAIN_
  6
SOLID
 62
     7
 10
-227.389847994
 20
64.722796440
 30
0.000000000
 11
-186.535973461
 21
66.149445413
 31
0.000000000
  0
LINE
  8
PLAIN_
  6
CENTER
 62
     7
 10
-234.070810460
 20
-40.654149055
 30
0.000000000
 11
-243.283280611
 21
-40.654149055
 31
0.000000000
  0
LINE
  8
PLAIN_
  6
CENTER
 62
     7
 10
-213.871539612
 20
-41.154149055
 30
0.000000000
 11
-223.559591147
 21
-41.154149055
 31
0.000000000
  0
LINE
  8
PLAIN_
  6
CENTER
 62
     7
 10
-219.640671968
 20
-48.067655142
 30
0.000000000
 11
-219.640671968
 21
-35.466856086
 31
0.000000000
  0
LINE
  8
PLAIN_
  6
L_DASH
 62
     7
 10
-234.701813936
 20
-43.516652107
 30
0.000000000
 11
-239.640702486
 21
-43.516652107
 31
0.000000000
  0
LINE
  8
PLAIN_
  6
SOLID
 62
     7
 10
-234.701813936
 20
-49.654149055
 30
0.000000000
 11
-238.640702486
 21
-49.654149055
 31
0.000000000
  0
LINE
  8
PLAIN_
  6
L_DASH
 62
     7
 10
-234.701813936
 20
-46.379139900
 30
0.000000000
 11
-239.640702486
 21
-46.379139900
 31
0.000000000
  0
LINE
  8
PLAIN_
  6
L_DASH
 62
     7
 10
-234.701813936
 20
-34.929158211
 30
0.000000000
 11
-239.640702486
 21
-34.929158211
 31
0.000000000
  0
LINE
  8
PLAIN_
  6
L_DASH
 62
     7
 10
-234.701813936
 20
-37.791646004
 30
0.000000000
 11
-239.640702486
 21
-37.791646004
 31
0.000000000
  0
LINE
  8
PLAIN_
  6
SOLID
 62
     7
 10
-234.701813936
 20
-31.654149055
 30
0.000000000
 11
-238.640702486
 21
-31.654149055
 31
0.000000000
  0
LINE
  8
PLAIN_
  6
SOLID
 62
     7
 10
7.859343290
 20
11.845850945
 30
0.000000000
 11
7.859343290
 21
-62.154147148
 31
0.000000000
  0
ARC
  8
PLAIN_
  6
SOLID
 62
     7
 10
72.859343290
 20
1.345851183
 30
0.000000000
 40
2.000000000
 50
0.000000000
 51
89.999934203
  0
LINE
  8
PLAIN_
  6
SOLID
 62
     7
 10
39.781645536
 20
4.845851183
 30
0.000000000
 11
42.859343230
 21
3.845851264
 31
0.000000000
  0
LINE
  8
PLAIN_
  6
SOLID
 62
     7
 10
30.817900419
 20
11.845851183
 30
0.000000000
 11
34.859342878
 21
4.845881855
 31
0.000000000
  0
LINE
  8
PLAIN_
  6
SOLID
 62
     7
 10
73.859343290
 20
-0.244511366
 30
0.000000000
 11
73.859343290
 21
-5.515141249
 31
0.000000000
  0
LINE
  8
PLAIN_
  6
CENTER
 62
     7
 10
26.859343290
 20
-2.777531385
 30
0.000000000
 11
26.859343290
 21
-11.363590956
 31
0.000000000
  0
LINE
  8
PLAIN_
  6
SOLID
 62
     7
 10
70.859343290
 20
3.345851183
 30
0.000000000
 11
72.859343290
 21
3.345851183
 31
0.000000000
  0
LINE
  8
PLAIN_
  6
SOLID
 62
     7
 10
34.859343290
 20
4.845851183
 30
0.000000000
 11
69.859343290
 21
4.845851183
 31
0.000000000
  0
LINE
  8
PLAIN_
  6
SOLID
 62
     7
 10
42.859343290
 20
3.845851183
 30
0.000000000
 11
70.859343290
 21
3.845851183
 31
0.000000000
  0
LINE
  8
PLAIN_
  6
SOLID
 62
     7
 10
69.859343290
 20
4.845851183
 30
0.000000000
 11
70.859343256
 21
3.845851217
 31
0.000000000
  0
ARC
  8
PLAIN_
  6
SOLID
 62
     7
 10
26.859343290
 20
-41.154148817
 30
0.000000000
 40
35.000000000
 50
89.999968354
 51
109.462988544
  0
LINE
  8
PLAIN_
  6
SOLID
 62
     7
 10
26.859343290
 20
-6.154148817
 30
0.000000000
 11
72.359343290
 21
-6.154148817
 31
0.000000000
  0
LINE
  8
PLAIN_
  6
SOLID
 62
     7
 10
72.859343290
 20
-5.654148817
 30
0.000000000
 11
70.359343334
 21
-8.154148774
 31
0.000000000
  0
LINE
  8
PLAIN_
  6
SOLID
 62
     7
 10
73.859343290
 20
-5.654148817
 30
0.000000000
 11
74.859343256
 21
-4.654148851
 31
0.000000000
  0
LINE
  8
PLAIN_
  6
SOLID
 62
     7
 10
72.859343290
 20
-5.654148817
 30
0.000000000
 11
72.859343290
 21
0.163172960
 31
0.000000000
  0
LINE
  8
PLAIN_
  6
SOLID
 62
     7
 10
8.859343290
 20
-8.154148817
 30
0.000000000
 11
70.359312773
 21
-8.154148817
 31
0.000000000
  0
LINE
  8
PLAIN_
  6
SOLID
 62
     7
 10
72.859343290
 20
-5.654148817
 30
0.000000000
 11
73.859343290
 21
-5.654148817
 31
0.000000000
  0
LINE
  8
PLAIN_
  6
SOLID
 62
     7
 10
-166.640702486
 20
-49.630512953
 30
0.000000000
 11
-166.640702486
 21
-46.904164076
 31
0.000000000
  0
ARC
  8
PLAIN_
  6
SOLID
 62
     7
 10
-200.640379310
 20
-31.181905508
 30
0.000000000
 40
150.000000000
 50
316.159086955
 51
333.358000121
  0
LINE
  8
PLAIN_
  6
CENTER
 62
     7
 10
-32.427582979
 20
-113.154141426
 30
0.000000000
 11
13.204905272
 21
-113.154141426
 31
0.000000000
  0
ARC
  8
PLAIN_
  6
SOLID
 62
     7
 10
-20.140656710
 20
-92.592217771
 30
0.000000000
 40
3.000000000
 50
0.000000000
 51
91.000000000
  0
LINE
  8
PLAIN_
  6
SOLID
 62
     7
 10
-108.622740718
 20
161.845850945
 30
0.000000000
 11
-101.800912467
 21
161.845850945
 31
0.000000000
  0
LINE
  8
PLAIN_
  6
SOLID
 62
     7
 10
-26.086293536
 20
155.455150604
 30
0.000000000
 11
-10.140641451
 21
155.455150604
 31
0.000000000
  0
LINE
  8
PLAIN_
  6
SOLID
 62
     7
 10
-0.140641451
 20
145.455150604
 30
0.000000000
 11
-0.140641451
 21
143.220998327
 31
0.000000000
  0
LINE
  8
PLAIN_
  6
CENTER
 62
     7
 10
82.789791887
 20
11.845850945
 30
0.000000000
 11
-235.984353304
 21
11.845850945
 31
0.000000000
  0
LINE
  8
PLAIN_
  6
SOLID
 62
     7
 10
-109.640671968
 20
160.862857383
 30
0.000000000
 11
-109.640671968
 21
-137.154138088
 31
0.000000000
  0
LINE
  8
PLAIN_
  6
SOLID
 62
     7
 10
283.416781187
 20
-1.514841080
 30
0.000000000
 11
283.416781187
 21
-7.239969254
 31
0.000000000
  0
LINE
  8
PLAIN_
  6
SOLID
 62
     7
 10
278.458666563
 20
1.347730637
 30
0.000000000
 11
283.416765947
 21
-1.514825884
 31
0.000000000
  0
LINE
  8
PLAIN_
  6
SOLID
 62
     7
 10
273.500567198
 20
-1.514841080
 30
0.000000000
 11
278.458651047
 21
1.347730495
 31
0.000000000
  0
ARC
  8
PLAIN_
  6
SOLID
 62
     7
 10
328.389128447
 20
-40.654149055
 30
0.000000000
 40
12.500000000
 50
0.000000000
 51
180.000032330
  0
LINE
  8
PLAIN_
  6
SOLID
 62
     7
 10
273.500567198
 20
-7.239969254
 30
0.000000000
 11
273.500551939
 21
-1.514841080
 31
0.000000000
  0
ARC
  8
PLAIN_
  6
SOLID
 62
     7
 10
378.319597561
 20
-4.377535451
 30
0.000000000
 40
11.000000000
 50
260.849902213
 51
153.150150681
  0
LINE
  8
PLAIN_
  6
SOLID
 62
     7
 10
278.458681822
 20
-10.102540970
 30
0.000000000
 11
273.500567339
 21
-7.239969352
 31
0.000000000
  0
CIRCLE
  8
PLAIN_
  6
SOLID
 62
     7
 10
359.247843507
 20
54.319254321
 30
0.000000000
 40
11.000000000
  0
LINE
  8
PLAIN_
  6
SOLID
 62
     7
 10
283.416781187
 20
-7.239961624
 30
0.000000000
 11
278.458681789
 21
-10.102541100
 31
0.000000000
  0
CIRCLE
  8
PLAIN_
  6
SOLID
 62
     7
 10
278.458666563
 20
-4.377405167
 30
0.000000000
 40
9.000000000
  0
CIRCLE
  8
PLAIN_
  6
SOLID
 62
     7
 10
297.530388344
 20
54.319239369
 30
0.000000000
 40
11.000000000
  0
ARC
  8
PLAIN_
  6
SOLID
 62
     7
 10
328.389128447
 20
11.845850945
 30
0.000000000
 40
65.000000000
 50
336.785309480
 51
203.214690520
  0
LINE
  8
PLAIN_
  6
SOLID
 62
     7
 10
383.277674437
 20
-1.514966965
 30
0.000000000
 11
383.277674437
 21
-7.240095139
 31
0.000000000
  0
LINE
  8
PLAIN_
  6
SOLID
 62
     7
 10
378.319559813
 20
1.347604752
 30
0.000000000
 11
383.277659196
 21
-1.514951769
 31
0.000000000
  0
ARC
  8
PLAIN_
  6
SOLID
 62
     7
 10
278.458650825
 20
-4.377523101
 30
0.000000000
 40
11.000000000
 50
26.849542837
 51
279.150009871
  0
LINE
  8
PLAIN_
  6
SOLID
 62
     7
 10
373.361460447
 20
-1.514966965
 30
0.000000000
 11
378.319544297
 21
1.347604610
 31
0.000000000
  0
LINE
  8
PLAIN_
  6
SOLID
 62
     7
 10
373.361460447
 20
-7.240095139
 30
0.000000000
 11
373.361445189
 21
-1.514966965
 31
0.000000000
  0
LINE
  8
PLAIN_
  6
SOLID
 62
     7
 10
340.889128447
 20
-40.654150963
 30
0.000000000
 11
340.889128447
 21
-55.154149318
 31
0.000000000
  0
CIRCLE
  8
PLAIN_
  6
SOLID
 62
     7
 10
328.389128447
 20
11.845850945
 30
0.000000000
 40
22.000000000
  0
LINE
  8
PLAIN_
  6
SOLID
 62
     7
 10
310.819147825
 20
25.085780144
 30
0.000000000
 11
293.468544436
 21
2.060751100
 31
0.000000000
  0
LINE
  8
PLAIN_
  6
SOLID
 62
     7
 10
345.959109068
 20
-1.394078255
 30
0.000000000
 11
327.380735926
 21
-26.048412837
 31
0.000000000
  0
LINE
  8
PLAIN_
  6
SOLID
 62
     7
 10
378.319575071
 20
-10.102666855
 30
0.000000000
 11
373.361460589
 21
-7.240095237
 31
0.000000000
  0
ARC
  8
PLAIN_
  6
SOLID
 62
     7
 10
319.394381285
 20
-20.030262947
 30
0.000000000
 40
10.000000000
 50
293.563581405
 51
322.999978935
  0
LINE
  8
PLAIN_
  6
SOLID
 62
     7
 10
266.951898694
 20
-54.154149405
 30
0.000000000
 11
266.951898694
 21
-36.265853767
 31
0.000000000
  0
LINE
  8
PLAIN_
  6
SOLID
 62
     7
 10
387.826358374
 20
-56.154149055
 30
0.000000000
 11
328.389128447
 21
-56.154149055
 31
0.000000000
  0
LINE
  8
PLAIN_
  6
CENTER
 62
     7
 10
293.889128447
 20
-27.267964363
 30
0.000000000
 11
293.889128447
 21
-62.904149055
 31
0.000000000
  0
LINE
  8
PLAIN_
  6
CENTER
 62
     7
 10
362.889128447
 20
-27.726864815
 30
0.000000000
 11
362.889128447
 21
-62.904149055
 31
0.000000000
  0
LINE
  8
PLAIN_
  6
SOLID
 62
     7
 10
268.951898520
 20
-56.154149055
 30
0.000000000
 11
266.951898694
 21
-54.154149405
 31
0.000000000
  0
ARC
  8
PLAIN_
  6
SOLID
 62
     7
 10
258.651898742
 20
-11.355517605
 30
0.000000000
 40
10.000000000
 50
360.000000000
 51
19.407516273
  0
LINE
  8
PLAIN_
  6
SOLID
 62
     7
 10
383.277674437
 20
-7.240087509
 30
0.000000000
 11
378.319575038
 21
-10.102666985
 31
0.000000000
  0
ARC
  8
PLAIN_
  6
SOLID
 62
     7
 10
286.951898694
 20
-36.265853767
 30
0.000000000
 40
20.000000000
 50
104.914077237
 51
180.000000000
  0
ARC
  8
PLAIN_
  6
SOLID
 62
     7
 10
301.454829931
 20
-3.957402229
 30
0.000000000
 40
10.000000000
 50
142.999745115
 51
181.046507924
  0
ARC
  8
PLAIN_
  6
SOLID
 62
     7
 10
280.525923491
 20
-17.212040901
 30
0.000000000
 40
2.000000000
 50
17.999852058
 51
99.150012606
  0
ARC
  8
PLAIN_
  6
SOLID
 62
     7
 10
278.458666563
 20
-4.377472878
 30
0.000000000
 40
13.000000000
 50
284.914077237
 51
1.046512933
  0
ARC
  8
PLAIN_
  6
SOLID
 62
     7
 10
290.057203054
 20
1.493960381
 30
0.000000000
 40
2.000000000
 50
206.849514608
 51
288.000064477
  0
LINE
  8
PLAIN_
  6
SOLID
 62
     7
 10
316.551024841
 20
33.243501630
 30
0.000000000
 11
307.392428664
 21
45.849217095
 31
0.000000000
  0
LINE
  8
PLAIN_
  6
SOLID
 62
     7
 10
311.696919783
 20
29.716793018
 30
0.000000000
 11
302.538302377
 21
42.322535497
 31
0.000000000
  0
LINE
  8
PLAIN_
  6
SOLID
 62
     7
 10
340.227224652
 20
33.243502560
 30
0.000000000
 11
349.385825279
 21
45.849243085
 31
0.000000000
  0
LINE
  8
PLAIN_
  6
SOLID
 62
     7
 10
345.081326347
 20
29.716789319
 30
0.000000000
 11
354.239942597
 21
42.322549141
 31
0.000000000
  0
ARC
  8
PLAIN_
  6
SOLID
 62
     7
 10
376.252310514
 20
-17.212109566
 30
0.000000000
 40
2.000000000
 50
80.849791140
 51
162.000149763
  0
LINE
  8
PLAIN_
  6
SOLID
 62
     7
 10
343.945479155
 20
27.402199745
 30
0.000000000
 11
363.076501496
 21
8.271177404
 31
0.000000000
  0
ARC
  8
PLAIN_
  6
SOLID
 62
     7
 10
300.111268997
 20
40.559188843
 30
0.000000000
 40
3.000000000
 50
35.999176370
 51
100.623168297
  0
ARC
  8
PLAIN_
  6
SOLID
 62
     7
 10
309.819480658
 20
47.612572670
 30
0.000000000
 40
3.000000000
 50
151.376900415
 51
216.000024907
  0
ARC
  8
PLAIN_
  6
SOLID
 62
     7
 10
318.978075743
 20
35.006857872
 30
0.000000000
 40
3.000000000
 50
216.000031738
 51
292.113433207
  0
ARC
  8
PLAIN_
  6
SOLID
 62
     7
 10
309.269871473
 20
27.953434944
 30
0.000000000
 40
3.000000000
 50
319.886563561
 51
36.000087973
  0
ARC
  8
PLAIN_
  6
SOLID
 62
     7
 10
346.958773375
 20
47.612601280
 30
0.000000000
 40
3.000000000
 50
324.000004007
 51
28.623114839
  0
ARC
  8
PLAIN_
  6
SOLID
 62
     7
 10
356.666994810
 20
40.559195518
 30
0.000000000
 40
3.000000000
 50
79.377038430
 51
144.000012659
  0
ARC
  8
PLAIN_
  6
SOLID
 62
     7
 10
347.508375883
 20
27.953436852
 30
0.000000000
 40
3.000000000
 50
143.999978508
 51
220.113455109
  0
ARC
  8
PLAIN_
  6
SOLID
 62
     7
 10
337.800169706
 20
35.006859779
 30
0.000000000
 40
3.000000000
 50
247.886541067
 51
324.000051818
  0
ARC
  8
PLAIN_
  6
SOLID
 62
     7
 10
356.005430937
 20
1.200110435
 30
0.000000000
 40
10.000000000
 50
345.965933359
 51
45.000064318
  0
ARC
  8
PLAIN_
  6
SOLID
 62
     7
 10
258.651898742
 20
-26.310453088
 30
0.000000000
 40
10.000000000
 50
340.619099598
 51
360.000000000
  0
ARC
  8
PLAIN_
  6
SOLID
 62
     7
 10
378.319594145
 20
-4.377533913
 30
0.000000000
 40
13.000000000
 50
165.965917251
 51
255.085889089
  0
ARC
  8
PLAIN_
  6
SOLID
 62
     7
 10
366.721091032
 20
1.493975639
 30
0.000000000
 40
2.000000000
 50
251.999831249
 51
333.150107910
  0
LINE
  8
PLAIN_
  6
SOLID
 62
     7
 10
328.389128447
 20
-56.154149055
 30
0.000000000
 11
268.951898520
 21
-56.154149055
 31
0.000000000
  0
LINE
  8
PLAIN_
  6
SOLID
 62
     7
 10
389.826358199
 20
-54.154149405
 30
0.000000000
 11
389.826358199
 21
-36.265853767
 31
0.000000000
  0
ARC
  8
PLAIN_
  6
SOLID
 62
     7
 10
328.389128447
 20
11.845850945
 30
0.000000000
 40
50.000000000
 50
74.127651920
 51
105.872458729
  0
ARC
  8
PLAIN_
  6
SOLID
 62
     7
 10
328.389128447
 20
11.845850945
 30
0.000000000
 40
50.000000000
 50
2.127608935
 51
18.000026000
  0
ARC
  8
PLAIN_
  6
SOLID
 62
     7
 10
378.205961943
 20
45.286585808
 30
0.000000000
 40
10.000000000
 50
154.524371113
 51
213.872431226
  0
ARC
  8
PLAIN_
  6
SOLID
 62
     7
 10
388.347761869
 20
14.073359489
 30
0.000000000
 40
10.000000000
 50
182.127596029
 51
241.475656142
  0
ARC
  8
PLAIN_
  6
SOLID
 62
     7
 10
344.798857450
 20
69.558247566
 30
0.000000000
 40
10.000000000
 50
254.127482987
 51
313.475645553
  0
CIRCLE
  8
PLAIN_
  6
SOLID
 62
     7
 10
378.319559813
 20
-4.377531052
 30
0.000000000
 40
9.000000000
  0
LINE
  8
PLAIN_
  6
SOLID
 62
     7
 10
328.389127668
 20
72.845849646
 30
0.000000000
 11
332.781427895
 21
65.525349268
 31
0.000000000
  0
LINE
  8
PLAIN_
  6
SOLID
 62
     7
 10
332.781428048
 20
65.525349012
 30
0.000000000
 11
323.996827287
 21
65.525349012
 31
0.000000000
  0
LINE
  8
PLAIN_
  6
SOLID
 62
     7
 10
341.889128272
 20
-56.154149055
 30
0.000000000
 11
340.889128447
 21
-55.154149318
 31
0.000000000
  0
LINE
  8
PLAIN_
  6
SOLID
 62
     7
 10
323.996827287
 20
65.525349012
 30
0.000000000
 11
328.389127514
 21
72.845849390
 31
0.000000000
  0
ARC
  8
PLAIN_
  6
SOLID
 62
     7
 10
311.979365110
 20
69.558236122
 30
0.000000000
 40
10.000000000
 50
226.524304815
 51
285.872173683
  0
ARC
  8
PLAIN_
  6
SOLID
 62
     7
 10
277.286868447
 20
48.733351955
 30
0.000000000
 40
10.000000000
 50
346.067762284
 51
15.425964394
  0
LINE
  8
PLAIN_
  6
SOLID
 62
     7
 10
286.992682219
 20
46.325610161
 30
0.000000000
 11
287.967695982
 21
46.008810996
 31
0.000000000
  0
LINE
  8
PLAIN_
  6
SOLID
 62
     7
 10
287.967695951
 20
46.008810997
 30
0.000000000
 11
275.607016859
 21
7.966550123
 31
0.000000000
  0
LINE
  8
PLAIN_
  6
SOLID
 62
     7
 10
314.889128621
 20
-56.154149055
 30
0.000000000
 11
315.889128447
 21
-55.154149318
 31
0.000000000
  0
LINE
  8
PLAIN_
  6
SOLID
 62
     7
 10
274.632010221
 20
8.283347130
 30
0.000000000
 11
275.607016335
 21
7.966547952
 31
0.000000000
  0
ARC
  8
PLAIN_
  6
SOLID
 62
     7
 10
265.364575547
 20
12.040293275
 30
0.000000000
 40
10.000000000
 50
308.574156005
 51
341.999988482
  0
LINE
  8
PLAIN_
  6
L_DASH
 62
     7
 10
277.264126539
 20
-33.154145241
 30
0.000000000
 11
277.264126539
 21
-56.154149055
 31
0.000000000
  0
LINE
  8
PLAIN_
  6
L_DASH
 62
     7
 10
310.514130354
 20
-33.154146194
 30
0.000000000
 11
310.514130354
 21
-56.154146194
 31
0.000000000
  0
LINE
  8
PLAIN_
  6
SOLID
 62
     7
 10
364.205929518
 20
57.181840897
 30
0.000000000
 11
364.205929518
 21
51.456712723
 31
0.000000000
  0
LINE
  8
PLAIN_
  6
L_DASH
 62
     7
 10
277.264128447
 20
-56.154149055
 30
0.000000000
 11
278.744122281
 21
-54.674155221
 31
0.000000000
  0
LINE
  8
PLAIN_
  6
SOLID
 62
     7
 10
359.247814894
 20
60.044412613
 30
0.000000000
 11
364.205914277
 21
57.181856092
 31
0.000000000
  0
LINE
  8
PLAIN_
  6
SOLID
 62
     7
 10
354.289715528
 20
57.181840897
 30
0.000000000
 11
359.247799378
 21
60.044412472
 31
0.000000000
  0
LINE
  8
PLAIN_
  6
L_DASH
 62
     7
 10
309.034129858
 20
-34.634141922
 30
0.000000000
 11
309.034129858
 21
-54.674150467
 31
0.000000000
  0
LINE
  8
PLAIN_
  6
L_DASH
 62
     7
 10
278.744127989
 20
-34.634143829
 30
0.000000000
 11
278.744127989
 21
-54.674156189
 31
0.000000000
  0
LINE
  8
PLAIN_
  6
SOLID
 62
     7
 10
354.289715528
 20
51.456712723
 30
0.000000000
 11
354.289700270
 21
57.181840897
 31
0.000000000
  0
LINE
  8
PLAIN_
  6
SOLID
 62
     7
 10
359.247830153
 20
48.594141006
 30
0.000000000
 11
354.289715670
 21
51.456712624
 31
0.000000000
  0
LINE
  8
PLAIN_
  6
L_DASH
 62
     7
 10
278.744127989
 20
-54.674153328
 30
0.000000000
 11
309.034128904
 21
-54.674153328
 31
0.000000000
  0
LINE
  8
PLAIN_
  6
L_DASH
 62
     7
 10
309.034128904
 20
-34.634144783
 30
0.000000000
 11
310.514130266
 21
-33.154149035
 31
0.000000000
  0
LINE
  8
PLAIN_
  6
L_DASH
 62
     7
 10
309.034128904
 20
-54.674153328
 30
0.000000000
 11
310.514129324
 21
-56.154149007
 31
0.000000000
  0
LINE
  8
PLAIN_
  6
SOLID
 62
     7
 10
364.205929518
 20
51.456720352
 30
0.000000000
 11
359.247830119
 21
48.594140876
 31
0.000000000
  0
CIRCLE
  8
PLAIN_
  6
SOLID
 62
     7
 10
359.247814894
 20
54.319276810
 30
0.000000000
 40
9.000000000
  0
LINE
  8
PLAIN_
  6
SOLID
 62
     7
 10
302.488486052
 20
57.181840897
 30
0.000000000
 11
302.488486052
 21
51.456712723
 31
0.000000000
  0
LINE
  8
PLAIN_
  6
L_DASH
 62
     7
 10
278.744127989
 20
-34.634144783
 30
0.000000000
 11
277.264126627
 21
-33.154149035
 31
0.000000000
  0
LINE
  8
PLAIN_
  6
SOLID
 62
     7
 10
297.530371428
 20
60.044412613
 30
0.000000000
 11
302.488470811
 21
57.181856092
 31
0.000000000
  0
LINE
  8
PLAIN_
  6
SOLID
 62
     7
 10
292.572272062
 20
57.181840897
 30
0.000000000
 11
297.530355912
 21
60.044412472
 31
0.000000000
  0
LINE
  8
PLAIN_
  6
L_DASH
 62
     7
 10
378.034132719
 20
-54.674153328
 30
0.000000000
 11
347.744127989
 21
-54.674153328
 31
0.000000000
  0
LINE
  8
PLAIN_
  6
L_DASH
 62
     7
 10
347.744127989
 20
-54.674153328
 30
0.000000000
 11
346.264128574
 21
-56.154149000
 31
0.000000000
  0
LINE
  8
PLAIN_
  6
L_DASH
 62
     7
 10
346.264128447
 20
-33.154149055
 30
0.000000000
 11
346.264128447
 21
-56.154149055
 31
0.000000000
  0
LINE
  8
PLAIN_
  6
L_DASH
 62
     7
 10
347.744127989
 20
-34.634144783
 30
0.000000000
 11
347.744127989
 21
-54.674153328
 31
0.000000000
  0
LINE
  8
PLAIN_
  6
SOLID
 62
     7
 10
292.572272062
 20
51.456712723
 30
0.000000000
 11
292.572256804
 21
57.181840897
 31
0.000000000
  0
LINE
  8
PLAIN_
  6
SOLID
 62
     7
 10
297.530386686
 20
48.594141006
 30
0.000000000
 11
292.572272204
 21
51.456712624
 31
0.000000000
  0
LINE
  8
PLAIN_
  6
L_DASH
 62
     7
 10
347.744127989
 20
-34.634144783
 30
0.000000000
 11
346.264128574
 21
-33.154149111
 31
0.000000000
  0
LINE
  8
PLAIN_
  6
SOLID
 62
     7
 10
302.488486052
 20
51.456720352
 30
0.000000000
 11
297.530386653
 21
48.594140876
 31
0.000000000
  0
CIRCLE
  8
PLAIN_
  6
SOLID
 62
     7
 10
297.530371428
 20
54.319276810
 30
0.000000000
 40
9.000000000
  0
CIRCLE
  8
PLAIN_
  6
SOLID
 62
     7
 10
328.389094114
 20
-40.654142380
 30
0.000000000
 40
9.000000000
  0
LINE
  8
PLAIN_
  6
L_DASH
 62
     7
 10
378.034132719
 20
-34.634144783
 30
0.000000000
 11
379.514128408
 21
-33.154149094
 31
0.000000000
  0
LINE
  8
PLAIN_
  6
L_DASH
 62
     7
 10
378.034132719
 20
-34.634144783
 30
0.000000000
 11
378.034132719
 21
-54.674153328
 31
0.000000000
  0
LINE
  8
PLAIN_
  6
L_DASH
 62
     7
 10
379.514128447
 20
-33.154149055
 30
0.000000000
 11
379.514128447
 21
-56.154149055
 31
0.000000000
  0
LINE
  8
PLAIN_
  6
L_DASH
 62
     7
 10
379.514128447
 20
-56.154149055
 30
0.000000000
 11
378.034132757
 21
-54.674153366
 31
0.000000000
  0
LINE
  8
PLAIN_
  6
SOLID
 62
     7
 10
328.389109373
 20
-46.379278183
 30
0.000000000
 11
323.430994891
 21
-43.516706565
 31
0.000000000
  0
LINE
  8
PLAIN_
  6
SOLID
 62
     7
 10
323.430994749
 20
-43.516706467
 30
0.000000000
 11
323.430979490
 21
-37.791578293
 31
0.000000000
  0
LINE
  8
PLAIN_
  6
SOLID
 62
     7
 10
323.430994749
 20
-37.791578293
 30
0.000000000
 11
328.389078599
 21
-34.929006718
 31
0.000000000
  0
LINE
  8
PLAIN_
  6
SOLID
 62
     7
 10
328.389094114
 20
-34.929006577
 30
0.000000000
 11
333.347193498
 21
-37.791563097
 31
0.000000000
  0
LINE
  8
PLAIN_
  6
SOLID
 62
     7
 10
333.347208738
 20
-37.791578293
 30
0.000000000
 11
333.347208738
 21
-43.516706467
 31
0.000000000
  0
LINE
  8
PLAIN_
  6
SOLID
 62
     7
 10
333.347208738
 20
-43.516698837
 30
0.000000000
 11
328.389109340
 21
-46.379278313
 31
0.000000000
  0
LINE
  8
PLAIN_
  6
SOLID
 62
     7
 10
315.889128447
 20
-55.154149055
 30
0.000000000
 11
315.889128447
 21
-40.654149055
 31
0.000000000
  0
ARC
  8
PLAIN_
  6
SOLID
 62
     7
 10
328.389128447
 20
11.845850945
 30
0.000000000
 40
44.000000000
 50
216.811557249
 51
254.146696309
  0
LINE
  8
PLAIN_
  6
SOLID
 62
     7
 10
268.651898742
 20
-26.310453088
 30
0.000000000
 11
268.651898742
 21
-10.995388193
 31
0.000000000
  0
ARC
  8
PLAIN_
  6
SOLID
 62
     7
 10
258.651898742
 20
-11.355517605
 30
0.000000000
 40
10.000000000
 50
360.000000000
 51
19.407516273
  0
ARC
  8
PLAIN_
  6
SOLID
 62
     7
 10
398.126358151
 20
-11.355517605
 30
0.000000000
 40
10.000000000
 50
160.592483727
 51
180.000000000
  0
ARC
  8
PLAIN_
  6
SOLID
 62
     7
 10
398.126358151
 20
-26.310453088
 30
0.000000000
 40
10.000000000
 50
180.000000000
 51
199.380900402
  0
LINE
  8
PLAIN_
  6
SOLID
 62
     7
 10
388.126358151
 20
-26.310453088
 30
0.000000000
 11
388.126358151
 21
-10.995388193
 31
0.000000000
  0
ARC
  8
PLAIN_
  6
SOLID
 62
     7
 10
369.826358199
 20
-36.265853767
 30
0.000000000
 40
20.000000000
 50
0.000000000
 51
75.085889089
  0
LINE
  8
PLAIN_
  6
SOLID
 62
     7
 10
387.826358374
 20
-56.154149055
 30
0.000000000
 11
389.826358199
 21
-54.154149405
 31
0.000000000
  0
CIRCLE
  8
PLAIN_
  6
SOLID
 62
     7
 10
328.389128447
 20
11.845850945
 30
0.000000000
 40
19.000000000
  0
POLYLINE
  8
PLAIN_
  6
SOLID
 62
     7
 66
     1
 10
0.000000000
 20
0.000000000
 30
0.000000000
  0
VERTEX
  8
PLAIN_
 10
278.589735746
 20
53.619288445
 30
0.000000000
  0
VERTEX
  8
PLAIN_
 10
281.093861580
 20
56.061259985
 30
0.000000000
  0
VERTEX
  8
PLAIN_
 10
282.364545017
 20
57.261280961
 30
0.000000000
  0
VERTEX
  8
PLAIN_
 10
283.657572508
 20
58.436144114
 30
0.000000000
  0
VERTEX
  8
PLAIN_
 10
284.980391830
 20
59.577463470
 30
0.000000000
  0
VERTEX
  8
PLAIN_
 10
286.340450764
 20
60.676853061
 30
0.000000000
  0
VERTEX
  8
PLAIN_
 10
287.745197088
 20
61.725926913
 30
0.000000000
  0
VERTEX
  8
PLAIN_
 10
288.466655452
 20
62.228974822
 30
0.000000000
  0
VERTEX
  8
PLAIN_
 10
289.202078581
 20
62.716299057
 30
0.000000000
  0
VERTEX
  8
PLAIN_
 10
290.298328996
 20
63.389599502
 30
0.000000000
  0
VERTEX
  8
PLAIN_
 10
290.859301403
 20
63.702402674
 30
0.000000000
  0
VERTEX
  8
PLAIN_
 10
291.429391623
 20
63.993681431
 30
0.000000000
  0
VERTEX
  8
PLAIN_
 10
292.009014413
 20
64.259215988
 30
0.000000000
  0
VERTEX
  8
PLAIN_
 10
292.598584533
 20
64.494786561
 30
0.000000000
  0
VERTEX
  8
PLAIN_
 10
293.198516741
 20
64.696173362
 30
0.000000000
  0
VERTEX
  8
PLAIN_
 10
293.809225798
 20
64.859156609
 30
0.000000000
  0
VERTEX
  8
PLAIN_
 10
294.707224607
 20
65.027487874
 30
0.000000000
  0
VERTEX
  8
PLAIN_
 10
295.616850615
 20
65.151534081
 30
0.000000000
  0
SEQEND
  0
POLYLINE
  8
PLAIN_
  6
SOLID
 62
     7
 66
     1
 10
0.000000000
 20
0.000000000
 30
0.000000000
  0
VERTEX
  8
PLAIN_
 10
378.188521147
 20
53.619288445
 30
0.000000000
  0
VERTEX
  8
PLAIN_
 10
375.684395313
 20
56.061259985
 30
0.000000000
  0
VERTEX
  8
PLAIN_
 10
374.413711876
 20
57.261280961
 30
0.000000000
  0
VERTEX
  8
PLAIN_
 10
373.120684385
 20
58.436144114
 30
0.000000000
  0
VERTEX
  8
PLAIN_
 10
371.797865063
 20
59.577463470
 30
0.000000000
  0
VERTEX
  8
PLAIN_
 10
370.437806129
 20
60.676853061
 30
0.000000000
  0
VERTEX
  8
PLAIN_
 10
369.033059806
 20
61.725926913
 30
0.000000000
  0
VERTEX
  8
PLAIN_
 10
368.311601441
 20
62.228974822
 30
0.000000000
  0
VERTEX
  8
PLAIN_
 10
367.576178312
 20
62.716299057
 30
0.000000000
  0
VERTEX
  8
PLAIN_
 10
366.479927897
 20
63.389599502
 30
0.000000000
  0
VERTEX
  8
PLAIN_
 10
365.918955490
 20
63.702402674
 30
0.000000000
  0
VERTEX
  8
PLAIN_
 10
365.348865271
 20
63.993681431
 30
0.000000000
  0
VERTEX
  8
PLAIN_
 10
364.769242480
 20
64.259215988
 30
0.000000000
  0
VERTEX
  8
PLAIN_
 10
364.179672360
 20
64.494786561
 30
0.000000000
  0
VERTEX
  8
PLAIN_
 10
363.579740152
 20
64.696173362
 30
0.000000000
  0
VERTEX
  8
PLAIN_
 10
362.969031096
 20
64.859156609
 30
0.000000000
  0
VERTEX
  8
PLAIN_
 10
362.071032286
 20
65.027487874
 30
0.000000000
  0
VERTEX
  8
PLAIN_
 10
361.161406279
 20
65.151534081
 30
0.000000000
  0
SEQEND
  0
ARC
  8
PLAIN_
  6
SOLID
 62
     7
 10
328.389128447
 20
11.845850945
 30
0.000000000
 40
50.000000000
 50
18.000026000
 51
33.872429405
  0
ARC
  8
PLAIN_
  6
CENTER
 62
     7
 10
328.389128447
 20
11.845850945
 30
0.000000000
 40
107.999996085
 50
41.234795529
 51
69.674085653
  0
ENDSEC
  0
EOF
