  0
SECTION
  2
HEADER
  9
$SPLINETYPE
 70
     6
  9
$FILLMODE
 70
     1
  9
$LTSCALE
 40
1.000000000
  0
ENDSEC
  0
SECTION
  2
TABLES
  0
TABLE
  2
LTYPE
 70
     8
  0
LTYPE
  2
SOLID
 70
    64
  3

 72
    65
 73
     0
 40
0.000000000
  0
LTYPE
  2
DASH
 70
    64
  3

 72
    65
 73
     3
 40
3.500000000
 49
1.500000000
 49
-1.500000000
 49
0.500000000
  0
LTYPE
  2
CENTER
 70
    64
  3

 72
    65
 73
     4
 40
8.000000000
 49
4.500000000
 49
-1.500000000
 49
0.500000000
 49
-1.500000000
  0
LTYPE
  2
L_DASH
 70
    64
  3

 72
    65
 73
     1
 40
0.500000000
 49
0.500000000
  0
LTYPE
  2
FONT_5
 70
    64
  3

 72
    65
 73
     8
 40
9.000000000
 49
0.500000000
 49
-2.500000000
 49
0.500000000
 49
-1.500000000
 49
0.500000000
 49
-1.500000000
 49
0.500000000
 49
-1.500000000
  0
LTYPE
  2
FONT_6
 70
    64
  3

 72
    65
 73
    11
 40
8.000000000
 49
0.500000000
 49
-1.000000000
 49
0.500000000
 49
-1.000000000
 49
0.500000000
 49
-1.000000000
 49
0.500000000
 49
-1.000000000
 49
0.500000000
 49
-1.000000000
 49
0.500000000
  0
LTYPE
  2
FONT_7
 70
    64
  3

 72
    65
 73
     4
 40
8.000000000
 49
1.000000000
 49
-5.000000000
 49
1.000000000
 49
-1.000000000
  0
LTYPE
  2
FONT_8
 70
    64
  3

 72
    65
 73
     4
 40
8.000000000
 49
1.000000000
 49
-5.000000000
 49
1.000000000
 49
-1.000000000
  0
ENDTAB
  0
TABLE
  2
LAYER
 70
     1
  0
LAYER
  2
PLAIN_
 70
    64
 62
     7
  6
SOLID
  0
ENDTAB
  0
TABLE
  2
STYLE
 70
     0
  0
STYLE
  2
STANDARD
 70
    64
 40
0.000000000
 41
1.000000000
 50
0.000000000
 71
     0
 42
0.000000000
  3
txt.shx
  4

  0
ENDTAB
  0
TABLE
  2
UCS
 70
     0
  0
ENDTAB
  0
ENDSEC
  0
SECTION
  2
BLOCKS
  0
BLOCK
  2
*D1
  8
PLAIN_
 70
    65
 10
0.000000000
 20
0.000000000
 30
0.000000000
  3
*D1
  0
LINE
  8
PLAIN_
  6
SOLID
 62
     7
 10
387.104797363
 20
132.260803223
 30
0.000000000
 11
364.246368408
 21
163.722732544
 31
0.000000000
  0
LINE
  8
PLAIN_
  6
SOLID
 62
     7
 10
403.285095215
 20
144.016494751
 30
0.000000000
 11
380.426666260
 21
175.478408813
 31
0.000000000
  0
LINE
  8
PLAIN_
  6
SOLID
 62
     7
 10
364.540252686
 20
163.318222046
 30
0.000000000
 11
352.404998779
 21
154.501449585
 31
0.000000000
  0
LINE
  8
PLAIN_
  6
SOLID
 62
     7
 10
352.404998779
 20
154.501449585
 30
0.000000000
 11
412.042755127
 21
197.830810547
 31
0.000000000
  0
LINE
  8
PLAIN_
  6
SOLID
 62
     7
 10
357.429626465
 20
156.092147827
 30
0.000000000
 11
364.540252686
 21
163.318222046
 31
0.000000000
  0
LINE
  8
PLAIN_
  6
SOLID
 62
     7
 10
364.540252686
 20
163.318222046
 30
0.000000000
 11
355.470520020
 21
158.788589478
 31
0.000000000
  0
LINE
  8
PLAIN_
  6
SOLID
 62
     7
 10
355.470520020
 20
158.788589478
 30
0.000000000
 11
357.429626465
 21
156.092147827
 31
0.000000000
  0
LINE
  8
PLAIN_
  6
SOLID
 62
     7
 10
380.720550537
 20
175.073898315
 30
0.000000000
 11
412.042755127
 21
197.830810547
 31
0.000000000
  0
LINE
  8
PLAIN_
  6
SOLID
 62
     7
 10
412.042755127
 20
197.830810547
 30
0.000000000
 11
352.404998779
 21
154.501449585
 31
0.000000000
  0
LINE
  8
PLAIN_
  6
SOLID
 62
     7
 10
387.831176758
 20
182.299972534
 30
0.000000000
 11
380.720550537
 21
175.073898315
 31
0.000000000
  0
LINE
  8
PLAIN_
  6
SOLID
 62
     7
 10
380.720550537
 20
175.073898315
 30
0.000000000
 11
389.790283203
 21
179.603530884
 31
0.000000000
  0
LINE
  8
PLAIN_
  6
SOLID
 62
     7
 10
389.790283203
 20
179.603530884
 30
0.000000000
 11
387.831176758
 21
182.299972534
 31
0.000000000
  0
TEXT
  8
PLAIN_
  6
SOLID
 62
     7
 10
393.666748047
 20
190.660217285
 30
0.000000000
 40
10.000000000
  1
20
 50
36.000001002
 41
0.733230782
  0
ENDBLK
  0
BLOCK
  2
*L1
  8
PLAIN_
 70
    65
 10
0.000000000
 20
0.000000000
 30
0.000000000
  3
*L1
  0
LINE
  8
PLAIN_
  6
SOLID
 62
     7
 10
593.546630859
 20
95.848999023
 30
0.000000000
 11
640.591430664
 21
152.579498291
 31
0.000000000
  0
LINE
  8
PLAIN_
  6
SOLID
 62
     7
 10
640.591430664
 20
152.579498291
 30
0.000000000
 11
662.074523926
 21
152.579498291
 31
0.000000000
  0
LINE
  8
PLAIN_
  6
SOLID
 62
     7
 10
598.647216797
 20
104.610366821
 30
0.000000000
 11
593.546630859
 21
95.848999023
 31
0.000000000
  0
LINE
  8
PLAIN_
  6
SOLID
 62
     7
 10
593.546630859
 20
95.848999023
 30
0.000000000
 11
601.212768555
 21
102.482788086
 31
0.000000000
  0
LINE
  8
PLAIN_
  6
SOLID
 62
     7
 10
601.212768555
 20
102.482788086
 30
0.000000000
 11
598.647216797
 21
104.610366821
 31
0.000000000
  0
TEXT
  8
PLAIN_
  6
SOLID
 62
     7
 10
667.465698242
 20
147.188293457
 30
0.000000000
 40
10.000000000
  1
%%c 270
 50
0.000000000
 41
0.834494629
  0
ENDBLK
  0
BLOCK
  2
*H1
  8
PLAIN_
 70
    65
 10
0.000000000
 20
0.000000000
 30
0.000000000
  3
*H1
  0
LINE
  8
PLAIN_
  6
SOLID
 62
     7
 10
195.608444214
 20
-12.116094589
 30
0.000000000
 11
197.921127319
 21
-9.803411484
 31
0.000000000
  0
LINE
  8
PLAIN_
  6
SOLID
 62
     7
 10
194.790786743
 20
-7.984014511
 30
0.000000000
 11
190.170364380
 21
-12.604436874
 31
0.000000000
  0
LINE
  8
PLAIN_
  6
SOLID
 62
     7
 10
186.055862427
 20
-11.769170761
 30
0.000000000
 11
190.625045776
 21
-7.199956894
 31
0.000000000
  0
LINE
  8
PLAIN_
  6
SOLID
 62
     7
 10
185.675308228
 20
-7.199956894
 30
0.000000000
 11
182.323410034
 21
-10.551885605
 31
0.000000000
  0
LINE
  8
PLAIN_
  6
SOLID
 62
     7
 10
177.722061157
 20
-10.203496933
 30
0.000000000
 11
180.725570679
 21
-7.199956894
 31
0.000000000
  0
LINE
  8
PLAIN_
  6
SOLID
 62
     7
 10
196.936904907
 20
9.011346817
 30
0.000000000
 11
197.983840942
 21
10.058282852
 31
0.000000000
  0
LINE
  8
PLAIN_
  6
SOLID
 62
     7
 10
195.534255981
 20
12.558465958
 30
0.000000000
 11
190.175827026
 21
7.200006485
 31
0.000000000
  0
LINE
  8
PLAIN_
  6
SOLID
 62
     7
 10
175.775802612
 20
-7.199956894
 30
0.000000000
 11
172.323867798
 21
-10.651922226
 31
0.000000000
  0
LINE
  8
PLAIN_
  6
SOLID
 62
     7
 10
167.339767456
 20
-10.686285019
 30
0.000000000
 11
170.826065063
 21
-7.199956894
 31
0.000000000
  0
LINE
  8
PLAIN_
  6
SOLID
 62
     7
 10
185.226058960
 20
7.200006485
 30
0.000000000
 11
189.466720581
 21
11.440668106
 31
0.000000000
  0
LINE
  8
PLAIN_
  6
SOLID
 62
     7
 10
184.519424438
 20
11.443109512
 30
0.000000000
 11
180.276321411
 21
7.200006485
 31
0.000000000
  0
LINE
  8
PLAIN_
  6
SOLID
 62
     7
 10
165.876327515
 20
-7.199956894
 30
0.000000000
 11
163.011001587
 21
-10.065313339
 31
0.000000000
  0
LINE
  8
PLAIN_
  6
SOLID
 62
     7
 10
159.092697144
 20
-9.033880234
 30
0.000000000
 11
160.926559448
 21
-7.199956894
 31
0.000000000
  0
LINE
  8
PLAIN_
  6
SOLID
 62
     7
 10
175.326583862
 20
7.200006485
 30
0.000000000
 11
179.817276001
 21
11.690729141
 31
0.000000000
  0
LINE
  8
PLAIN_
  6
SOLID
 62
     7
 10
174.864913940
 20
11.688104630
 30
0.000000000
 11
170.376815796
 21
7.200006485
 31
0.000000000
  0
LINE
  8
PLAIN_
  6
SOLID
 62
     7
 10
157.259475708
 20
-5.917303085
 30
0.000000000
 11
155.636703491
 21
-7.540105820
 31
0.000000000
  0
LINE
  8
PLAIN_
  6
SOLID
 62
     7
 10
153.090255737
 20
-5.136846542
 30
0.000000000
 11
155.447738647
 21
-2.779302597
 31
0.000000000
  0
LINE
  8
PLAIN_
  6
SOLID
 62
     7
 10
165.427078247
 20
7.200006485
 30
0.000000000
 11
169.584823608
 21
11.357782364
 31
0.000000000
  0
LINE
  8
PLAIN_
  6
SOLID
 62
     7
 10
164.279403687
 20
11.002069473
 30
0.000000000
 11
160.477340698
 21
7.200006485
 31
0.000000000
  0
LINE
  8
PLAIN_
  6
SOLID
 62
     7
 10
154.615951538
 20
1.338617325
 30
0.000000000
 11
151.878250122
 21
-1.399053574
 31
0.000000000
  0
LINE
  8
PLAIN_
  6
SOLID
 62
     7
 10
152.696090698
 20
4.368524551
 30
0.000000000
 11
158.412094116
 21
10.084527969
 31
0.000000000
  0
ENDBLK
  0
BLOCK
  2
*D2
  8
PLAIN_
 70
    65
 10
0.000000000
 20
0.000000000
 30
0.000000000
  3
*D2
  0
LINE
  8
PLAIN_
  6
SOLID
 62
     7
 10
607.668518066
 20
153.564132690
 30
0.000000000
 11
623.568054199
 21
175.447967529
 31
0.000000000
  0
LINE
  8
PLAIN_
  6
SOLID
 62
     7
 10
495.828063965
 20
195.278076172
 30
0.000000000
 11
495.828063965
 21
216.953186035
 31
0.000000000
  0
LINE
  8
PLAIN_
  6
SOLID
 62
     7
 10
614.102416992
 20
179.362731934
 30
0.000000000
 11
623.274169922
 21
175.043457031
 31
0.000000000
  0
LINE
  8
PLAIN_
  6
SOLID
 62
     7
 10
623.274169922
 20
175.043457031
 30
0.000000000
 11
615.998779297
 21
182.103637695
 31
0.000000000
  0
LINE
  8
PLAIN_
  6
SOLID
 62
     7
 10
615.998779297
 20
182.103637695
 30
0.000000000
 11
614.102416992
 21
179.362731934
 31
0.000000000
  0
LINE
  8
PLAIN_
  6
SOLID
 62
     7
 10
505.863830566
 20
217.888641357
 30
0.000000000
 11
495.828063965
 21
216.453186035
 31
0.000000000
  0
LINE
  8
PLAIN_
  6
SOLID
 62
     7
 10
495.828063965
 20
216.453186035
 30
0.000000000
 11
505.786987305
 21
214.556518555
 31
0.000000000
  0
LINE
  8
PLAIN_
  6
SOLID
 62
     7
 10
505.786987305
 20
214.556518555
 30
0.000000000
 11
505.863830566
 21
217.888641357
 31
0.000000000
  0
ARC
  8
PLAIN_
  6
SOLID
 62
     7
 10
495.828063965
 20
-0.371084213
 30
0.000000000
 40
216.824279785
 50
54.000003910
 51
90.000000000
  0
ARC
  8
PLAIN_
  6
SOLID
 62
     7
 10
495.828063965
 20
-0.371084213
 30
0.000000000
 40
216.824279785
 50
54.000016958
 51
90.000000000
  0
TEXT
  8
PLAIN_
  6
SOLID
 62
     7
 10
554.390930176
 20
213.840530396
 30
0.000000000
 40
10.000000000
  1
36%%d
 50
-18.000000501
 41
0.699897448
  0
ENDBLK
  0
BLOCK
  2
*D3
  8
PLAIN_
 70
    65
 10
0.000000000
 20
0.000000000
 30
0.000000000
  3
*D3
  0
LINE
  8
PLAIN_
  6
SOLID
 62
     7
 10
327.142578125
 20
-55.180271149
 30
0.000000000
 11
290.963043213
 21
-66.935714722
 31
0.000000000
  0
LINE
  8
PLAIN_
  6
SOLID
 62
     7
 10
495.828063965
 20
-200.659790039
 30
0.000000000
 11
495.828063965
 21
-215.778854370
 31
0.000000000
  0
LINE
  8
PLAIN_
  6
SOLID
 62
     7
 10
296.321716309
 20
-75.665588379
 30
0.000000000
 11
291.438568115
 21
-66.781204224
 31
0.000000000
  0
LINE
  8
PLAIN_
  6
SOLID
 62
     7
 10
291.438568115
 20
-66.781204224
 30
0.000000000
 11
293.176635742
 21
-76.769012451
 31
0.000000000
  0
LINE
  8
PLAIN_
  6
SOLID
 62
     7
 10
293.176635742
 20
-76.769012451
 30
0.000000000
 11
296.321716309
 21
-75.665588379
 31
0.000000000
  0
LINE
  8
PLAIN_
  6
SOLID
 62
     7
 10
485.792022705
 20
-216.712249756
 30
0.000000000
 11
495.828063965
 21
-215.278854370
 31
0.000000000
  0
LINE
  8
PLAIN_
  6
SOLID
 62
     7
 10
495.828063965
 20
-215.278854370
 30
0.000000000
 11
485.869537354
 21
-213.380157471
 31
0.000000000
  0
LINE
  8
PLAIN_
  6
SOLID
 62
     7
 10
485.869537354
 20
-213.380157471
 30
0.000000000
 11
485.792022705
 21
-216.712249756
 31
0.000000000
  0
ARC
  8
PLAIN_
  6
SOLID
 62
     7
 10
495.828063965
 20
-0.371023178
 30
0.000000000
 40
214.907836914
 50
198.000002064
 51
270.000000000
  0
ARC
  8
PLAIN_
  6
SOLID
 62
     7
 10
495.828063965
 20
-0.371023178
 30
0.000000000
 40
214.907836914
 50
198.000002064
 51
270.000000000
  0
TEXT
  8
PLAIN_
  6
SOLID
 62
     7
 10
364.108306885
 20
-163.806686401
 30
0.000000000
 40
10.000000000
  1
72%%d
 50
-35.999994172
 41
0.699897448
  0
ENDBLK
  0
BLOCK
  2
*D4
  8
PLAIN_
 70
    65
 10
0.000000000
 20
0.000000000
 30
0.000000000
  3
*D4
  0
LINE
  8
PLAIN_
  6
SOLID
 62
     7
 10
400.368469238
 20
-95.830657959
 30
0.000000000
 11
495.827880859
 21
-0.371238708
 31
0.000000000
  0
LINE
  8
PLAIN_
  6
SOLID
 62
     7
 10
405.082611084
 20
-89.231086731
 30
0.000000000
 11
400.368469238
 21
-95.830657959
 31
0.000000000
  0
LINE
  8
PLAIN_
  6
SOLID
 62
     7
 10
400.368469238
 20
-95.830657959
 30
0.000000000
 11
406.968048096
 21
-91.116523743
 31
0.000000000
  0
LINE
  8
PLAIN_
  6
SOLID
 62
     7
 10
406.968048096
 20
-91.116523743
 30
0.000000000
 11
405.082611084
 21
-89.231086731
 31
0.000000000
  0
TEXT
  8
PLAIN_
  6
SOLID
 62
     7
 10
406.105377197
 20
-84.436897278
 30
0.000000000
 40
8.000000000
  1
R
 50
45.000001252
 41
0.583230734
  0
TEXT
  8
PLAIN_
  6
SOLID
 62
     7
 10
411.102264404
 20
-79.440010071
 30
0.000000000
 40
8.000000000
  1
135
 50
45.000001252
 41
0.783230782
  0
ENDBLK
  0
BLOCK
  2
*D5
  8
PLAIN_
 70
    65
 10
0.000000000
 20
0.000000000
 30
0.000000000
  3
*D5
  0
LINE
  8
PLAIN_
  6
SOLID
 62
     7
 10
-66.000000000
 20
87.000000000
 30
0.000000000
 11
-66.000000000
 21
143.328811646
 31
0.000000000
  0
LINE
  8
PLAIN_
  6
SOLID
 62
     7
 10
-57.000000000
 20
110.917419434
 30
0.000000000
 11
-57.000000000
 21
143.328811646
 31
0.000000000
  0
LINE
  8
PLAIN_
  6
SOLID
 62
     7
 10
-66.000000000
 20
142.828811646
 30
0.000000000
 11
-93.211250305
 21
142.828811646
 31
0.000000000
  0
LINE
  8
PLAIN_
  6
SOLID
 62
     7
 10
-93.211250305
 20
142.828811646
 30
0.000000000
 11
-42.000000000
 21
142.828811646
 31
0.000000000
  0
LINE
  8
PLAIN_
  6
SOLID
 62
     7
 10
-76.000000000
 20
141.162307739
 30
0.000000000
 11
-66.000000000
 21
142.828811646
 31
0.000000000
  0
LINE
  8
PLAIN_
  6
SOLID
 62
     7
 10
-66.000000000
 20
142.828811646
 30
0.000000000
 11
-76.000000000
 21
144.495315552
 31
0.000000000
  0
LINE
  8
PLAIN_
  6
SOLID
 62
     7
 10
-76.000000000
 20
144.495315552
 30
0.000000000
 11
-76.000000000
 21
141.162307739
 31
0.000000000
  0
LINE
  8
PLAIN_
  6
SOLID
 62
     7
 10
-57.000000000
 20
142.828811646
 30
0.000000000
 11
-42.000000000
 21
142.828811646
 31
0.000000000
  0
LINE
  8
PLAIN_
  6
SOLID
 62
     7
 10
-42.000000000
 20
142.828811646
 30
0.000000000
 11
-93.211250305
 21
142.828811646
 31
0.000000000
  0
LINE
  8
PLAIN_
  6
SOLID
 62
     7
 10
-47.000000000
 20
144.495315552
 30
0.000000000
 11
-57.000000000
 21
142.828811646
 31
0.000000000
  0
LINE
  8
PLAIN_
  6
SOLID
 62
     7
 10
-57.000000000
 20
142.828811646
 30
0.000000000
 11
-47.000000000
 21
141.162307739
 31
0.000000000
  0
LINE
  8
PLAIN_
  6
SOLID
 62
     7
 10
-47.000000000
 20
141.162307739
 30
0.000000000
 11
-47.000000000
 21
144.495315552
 31
0.000000000
  0
TEXT
  8
PLAIN_
  6
SOLID
 62
     7
 10
-88.794586182
 20
147.828811646
 30
0.000000000
 40
10.000000000
  1
9
 50
0.000000000
 41
0.583230782
  0
ENDBLK
  0
BLOCK
  2
*D6
  8
PLAIN_
 70
    65
 10
0.000000000
 20
0.000000000
 30
0.000000000
  3
*D6
  0
LINE
  8
PLAIN_
  6
SOLID
 62
     7
 10
-143.000030518
 20
16.500000000
 30
0.000000000
 11
-143.000030518
 21
214.120223999
 31
0.000000000
  0
LINE
  8
PLAIN_
  6
SOLID
 62
     7
 10
-66.000000000
 20
87.000000000
 30
0.000000000
 11
-66.000000000
 21
214.120223999
 31
0.000000000
  0
LINE
  8
PLAIN_
  6
SOLID
 62
     7
 10
-143.000030518
 20
213.620223999
 30
0.000000000
 11
-66.000000000
 21
213.620223999
 31
0.000000000
  0
LINE
  8
PLAIN_
  6
SOLID
 62
     7
 10
-133.000030518
 20
215.286727905
 30
0.000000000
 11
-143.000030518
 21
213.620223999
 31
0.000000000
  0
LINE
  8
PLAIN_
  6
SOLID
 62
     7
 10
-143.000030518
 20
213.620223999
 30
0.000000000
 11
-133.000030518
 21
211.953720093
 31
0.000000000
  0
LINE
  8
PLAIN_
  6
SOLID
 62
     7
 10
-133.000030518
 20
211.953720093
 30
0.000000000
 11
-133.000030518
 21
215.286727905
 31
0.000000000
  0
LINE
  8
PLAIN_
  6
SOLID
 62
     7
 10
-66.000000000
 20
213.620223999
 30
0.000000000
 11
-143.000030518
 21
213.620223999
 31
0.000000000
  0
LINE
  8
PLAIN_
  6
SOLID
 62
     7
 10
-76.000000000
 20
211.953720093
 30
0.000000000
 11
-66.000000000
 21
213.620223999
 31
0.000000000
  0
LINE
  8
PLAIN_
  6
SOLID
 62
     7
 10
-66.000000000
 20
213.620223999
 30
0.000000000
 11
-76.000000000
 21
215.286727905
 31
0.000000000
  0
LINE
  8
PLAIN_
  6
SOLID
 62
     7
 10
-76.000000000
 20
215.286727905
 30
0.000000000
 11
-76.000000000
 21
211.953720093
 31
0.000000000
  0
TEXT
  8
PLAIN_
  6
SOLID
 62
     7
 10
-116.081817627
 20
218.620223999
 30
0.000000000
 40
10.000000000
  1
77
 50
0.000000000
 41
0.733230782
  0
ENDBLK
  0
BLOCK
  2
*D7
  8
PLAIN_
 70
    65
 10
0.000000000
 20
0.000000000
 30
0.000000000
  3
*D7
  0
LINE
  8
PLAIN_
  6
SOLID
 62
     7
 10
552.828063965
 20
-68.371032715
 30
0.000000000
 11
578.623474121
 21
-68.371032715
 31
0.000000000
  0
LINE
  8
PLAIN_
  6
SOLID
 62
     7
 10
578.123474121
 20
-68.371032715
 30
0.000000000
 11
578.123474121
 21
-0.371032715
 31
0.000000000
  0
LINE
  8
PLAIN_
  6
SOLID
 62
     7
 10
576.456970215
 20
-58.371032715
 30
0.000000000
 11
578.123474121
 21
-68.371032715
 31
0.000000000
  0
LINE
  8
PLAIN_
  6
SOLID
 62
     7
 10
578.123474121
 20
-68.371032715
 30
0.000000000
 11
579.789978027
 21
-58.371032715
 31
0.000000000
  0
LINE
  8
PLAIN_
  6
SOLID
 62
     7
 10
579.789978027
 20
-58.371032715
 30
0.000000000
 11
576.456970215
 21
-58.371032715
 31
0.000000000
  0
LINE
  8
PLAIN_
  6
SOLID
 62
     7
 10
578.123474121
 20
-0.371032715
 30
0.000000000
 11
578.123474121
 21
-68.371032715
 31
0.000000000
  0
LINE
  8
PLAIN_
  6
SOLID
 62
     7
 10
579.789978027
 20
-10.371034622
 30
0.000000000
 11
578.123474121
 21
-0.371032715
 31
0.000000000
  0
LINE
  8
PLAIN_
  6
SOLID
 62
     7
 10
578.123474121
 20
-0.371032715
 30
0.000000000
 11
576.456970215
 21
-10.371034622
 31
0.000000000
  0
LINE
  8
PLAIN_
  6
SOLID
 62
     7
 10
576.456970215
 20
-10.371034622
 30
0.000000000
 11
579.789978027
 21
-10.371034622
 31
0.000000000
  0
TEXT
  8
PLAIN_
  6
SOLID
 62
     7
 10
573.123474121
 20
-35.589439392
 30
0.000000000
 40
10.000000000
  1
68
 50
90.000002504
 41
0.769923067
  0
ENDBLK
  0
BLOCK
  2
*D8
  8
PLAIN_
 70
    65
 10
0.000000000
 20
0.000000000
 30
0.000000000
  3
*D8
  0
LINE
  8
PLAIN_
  6
SOLID
 62
     7
 10
126.000000000
 20
171.500000000
 30
0.000000000
 11
126.000000000
 21
214.378402710
 31
0.000000000
  0
LINE
  8
PLAIN_
  6
SOLID
 62
     7
 10
198.000000000
 20
0.499988556
 30
0.000000000
 11
198.000000000
 21
214.378402710
 31
0.000000000
  0
LINE
  8
PLAIN_
  6
SOLID
 62
     7
 10
126.000000000
 20
213.878402710
 30
0.000000000
 11
198.000000000
 21
213.878402710
 31
0.000000000
  0
LINE
  8
PLAIN_
  6
SOLID
 62
     7
 10
136.000000000
 20
215.544906616
 30
0.000000000
 11
126.000000000
 21
213.878402710
 31
0.000000000
  0
LINE
  8
PLAIN_
  6
SOLID
 62
     7
 10
126.000000000
 20
213.878402710
 30
0.000000000
 11
136.000000000
 21
212.211898804
 31
0.000000000
  0
LINE
  8
PLAIN_
  6
SOLID
 62
     7
 10
136.000000000
 20
212.211898804
 30
0.000000000
 11
136.000000000
 21
215.544906616
 31
0.000000000
  0
LINE
  8
PLAIN_
  6
SOLID
 62
     7
 10
198.000000000
 20
213.878402710
 30
0.000000000
 11
126.000000000
 21
213.878402710
 31
0.000000000
  0
LINE
  8
PLAIN_
  6
SOLID
 62
     7
 10
188.000000000
 20
212.211898804
 30
0.000000000
 11
198.000000000
 21
213.878402710
 31
0.000000000
  0
LINE
  8
PLAIN_
  6
SOLID
 62
     7
 10
198.000000000
 20
213.878402710
 30
0.000000000
 11
188.000000000
 21
215.544906616
 31
0.000000000
  0
LINE
  8
PLAIN_
  6
SOLID
 62
     7
 10
188.000000000
 20
215.544906616
 30
0.000000000
 11
188.000000000
 21
212.211898804
 31
0.000000000
  0
TEXT
  8
PLAIN_
  6
SOLID
 62
     7
 10
136.882247925
 20
218.878402710
 30
0.000000000
 40
10.000000000
  1
72
 50
0.000000000
 41
0.733230782
  0
TEXT
  8
PLAIN_
  6
SOLID
 62
     7
 10
157.548904419
 20
229.378402710
 30
0.000000000
 40
7.000000000
  1
+0.1
 50
0.000000000
 41
0.745730809
  0
TEXT
  8
PLAIN_
  6
SOLID
 62
     7
 10
157.548904419
 20
214.378402710
 30
0.000000000
 40
7.000000000
  1
-0.0
 50
0.000000000
 41
0.808230809
  0
ENDBLK
  0
BLOCK
  2
*L2
  8
PLAIN_
 70
    65
 10
0.000000000
 20
0.000000000
 30
0.000000000
  3
*L2
  0
LINE
  8
PLAIN_
  6
SOLID
 62
     7
 10
579.471801758
 20
125.753471375
 30
0.000000000
 11
611.476440430
 21
224.868240356
 31
0.000000000
  0
LINE
  8
PLAIN_
  6
SOLID
 62
     7
 10
611.476440430
 20
224.868240356
 30
0.000000000
 11
623.278869629
 21
224.868240356
 31
0.000000000
  0
LINE
  8
PLAIN_
  6
SOLID
 62
     7
 10
580.958740234
 20
135.781738281
 30
0.000000000
 11
579.471801758
 21
125.753471375
 31
0.000000000
  0
LINE
  8
PLAIN_
  6
SOLID
 62
     7
 10
579.471801758
 20
125.753471375
 30
0.000000000
 11
584.130493164
 21
134.757568359
 31
0.000000000
  0
LINE
  8
PLAIN_
  6
SOLID
 62
     7
 10
584.130493164
 20
134.757568359
 30
0.000000000
 11
580.958740234
 21
135.781738281
 31
0.000000000
  0
TEXT
  8
PLAIN_
  6
SOLID
 62
     7
 10
628.278869629
 20
227.368240356
 30
0.000000000
 40
10.000000000
  1
N%%d2 1/2"
 50
0.000000000
 41
0.824903774
  0
TEXT
  8
PLAIN_
  6
SOLID
 62
     7
 10
628.278869629
 20
212.368240356
 30
0.000000000
 40
10.000000000
  1
BSP
 50
0.000000000
 41
0.783230782
  0
ENDBLK
  0
BLOCK
  2
*D9
  8
PLAIN_
 70
    65
 10
0.000000000
 20
0.000000000
 30
0.000000000
  3
*D9
  0
LINE
  8
PLAIN_
  6
SOLID
 62
     7
 10
-143.000030518
 20
16.500000000
 30
0.000000000
 11
-143.000030518
 21
242.436782837
 31
0.000000000
  0
LINE
  8
PLAIN_
  6
SOLID
 62
     7
 10
126.000000000
 20
171.500000000
 30
0.000000000
 11
126.000000000
 21
242.436782837
 31
0.000000000
  0
LINE
  8
PLAIN_
  6
SOLID
 62
     7
 10
-143.000030518
 20
241.936782837
 30
0.000000000
 11
126.000000000
 21
241.936782837
 31
0.000000000
  0
LINE
  8
PLAIN_
  6
SOLID
 62
     7
 10
-133.000030518
 20
243.603286743
 30
0.000000000
 11
-143.000030518
 21
241.936782837
 31
0.000000000
  0
LINE
  8
PLAIN_
  6
SOLID
 62
     7
 10
-143.000030518
 20
241.936782837
 30
0.000000000
 11
-133.000030518
 21
240.270278931
 31
0.000000000
  0
LINE
  8
PLAIN_
  6
SOLID
 62
     7
 10
-133.000030518
 20
240.270278931
 30
0.000000000
 11
-133.000030518
 21
243.603286743
 31
0.000000000
  0
LINE
  8
PLAIN_
  6
SOLID
 62
     7
 10
126.000000000
 20
241.936782837
 30
0.000000000
 11
-143.000030518
 21
241.936782837
 31
0.000000000
  0
LINE
  8
PLAIN_
  6
SOLID
 62
     7
 10
116.000007629
 20
240.270278931
 30
0.000000000
 11
126.000000000
 21
241.936782837
 31
0.000000000
  0
LINE
  8
PLAIN_
  6
SOLID
 62
     7
 10
126.000000000
 20
241.936782837
 30
0.000000000
 11
116.000007629
 21
243.603286743
 31
0.000000000
  0
LINE
  8
PLAIN_
  6
SOLID
 62
     7
 10
116.000007629
 20
243.603286743
 30
0.000000000
 11
116.000007629
 21
240.270278931
 31
0.000000000
  0
TEXT
  8
PLAIN_
  6
SOLID
 62
     7
 10
-15.399950981
 20
246.936782837
 30
0.000000000
 40
10.000000000
  1
269
 50
0.000000000
 41
0.783230782
  0
ENDBLK
  0
BLOCK
  2
*D10
  8
PLAIN_
 70
    65
 10
0.000000000
 20
0.000000000
 30
0.000000000
  3
*D10
  0
LINE
  8
PLAIN_
  6
SOLID
 62
     7
 10
-143.000030518
 20
16.500000000
 30
0.000000000
 11
-143.000030518
 21
270.753356934
 31
0.000000000
  0
LINE
  8
PLAIN_
  6
SOLID
 62
     7
 10
198.000000000
 20
0.499988556
 30
0.000000000
 11
198.000000000
 21
270.753356934
 31
0.000000000
  0
LINE
  8
PLAIN_
  6
SOLID
 62
     7
 10
-143.000030518
 20
270.253356934
 30
0.000000000
 11
198.000000000
 21
270.253356934
 31
0.000000000
  0
LINE
  8
PLAIN_
  6
SOLID
 62
     7
 10
-133.000045776
 20
271.919860840
 30
0.000000000
 11
-143.000030518
 21
270.253356934
 31
0.000000000
  0
LINE
  8
PLAIN_
  6
SOLID
 62
     7
 10
-143.000030518
 20
270.253356934
 30
0.000000000
 11
-133.000045776
 21
268.586853027
 31
0.000000000
  0
LINE
  8
PLAIN_
  6
SOLID
 62
     7
 10
-133.000045776
 20
268.586853027
 30
0.000000000
 11
-133.000045776
 21
271.919860840
 31
0.000000000
  0
LINE
  8
PLAIN_
  6
SOLID
 62
     7
 10
198.000000000
 20
270.253356934
 30
0.000000000
 11
-143.000030518
 21
270.253356934
 31
0.000000000
  0
LINE
  8
PLAIN_
  6
SOLID
 62
     7
 10
188.000015259
 20
268.586853027
 30
0.000000000
 11
198.000000000
 21
270.253356934
 31
0.000000000
  0
LINE
  8
PLAIN_
  6
SOLID
 62
     7
 10
198.000000000
 20
270.253356934
 30
0.000000000
 11
188.000015259
 21
271.919860840
 31
0.000000000
  0
LINE
  8
PLAIN_
  6
SOLID
 62
     7
 10
188.000015259
 20
271.919860840
 30
0.000000000
 11
188.000015259
 21
268.586853027
 31
0.000000000
  0
TEXT
  8
PLAIN_
  6
SOLID
 62
     7
 10
11.988423347
 20
275.253356934
 30
0.000000000
 40
10.000000000
  1
341
 50
0.000000000
 41
0.699897448
  0
ENDBLK
  0
BLOCK
  2
*D11
  8
PLAIN_
 70
    65
 10
0.000000000
 20
0.000000000
 30
0.000000000
  3
*D11
  0
LINE
  8
PLAIN_
  6
SOLID
 62
     7
 10
126.000000000
 20
170.500000000
 30
0.000000000
 11
126.000000000
 21
158.665283203
 31
0.000000000
  0
LINE
  8
PLAIN_
  6
SOLID
 62
     7
 10
136.000000000
 20
132.000000000
 30
0.000000000
 11
136.000000000
 21
159.665283203
 31
0.000000000
  0
LINE
  8
PLAIN_
  6
SOLID
 62
     7
 10
126.000000000
 20
159.165283203
 30
0.000000000
 11
111.000000000
 21
159.165283203
 31
0.000000000
  0
LINE
  8
PLAIN_
  6
SOLID
 62
     7
 10
111.000000000
 20
159.165283203
 30
0.000000000
 11
168.194976807
 21
159.165283203
 31
0.000000000
  0
LINE
  8
PLAIN_
  6
SOLID
 62
     7
 10
116.000000000
 20
157.498779297
 30
0.000000000
 11
126.000000000
 21
159.165283203
 31
0.000000000
  0
LINE
  8
PLAIN_
  6
SOLID
 62
     7
 10
126.000000000
 20
159.165283203
 30
0.000000000
 11
116.000000000
 21
160.831787109
 31
0.000000000
  0
LINE
  8
PLAIN_
  6
SOLID
 62
     7
 10
116.000000000
 20
160.831787109
 30
0.000000000
 11
116.000000000
 21
157.498779297
 31
0.000000000
  0
LINE
  8
PLAIN_
  6
SOLID
 62
     7
 10
136.000000000
 20
159.165283203
 30
0.000000000
 11
168.194976807
 21
159.165283203
 31
0.000000000
  0
LINE
  8
PLAIN_
  6
SOLID
 62
     7
 10
168.194976807
 20
159.165283203
 30
0.000000000
 11
111.000000000
 21
159.165283203
 31
0.000000000
  0
LINE
  8
PLAIN_
  6
SOLID
 62
     7
 10
146.000000000
 20
160.831787109
 30
0.000000000
 11
136.000000000
 21
159.165283203
 31
0.000000000
  0
LINE
  8
PLAIN_
  6
SOLID
 62
     7
 10
136.000000000
 20
159.165283203
 30
0.000000000
 11
146.000000000
 21
157.498779297
 31
0.000000000
  0
LINE
  8
PLAIN_
  6
SOLID
 62
     7
 10
146.000000000
 20
157.498779297
 30
0.000000000
 11
146.000000000
 21
160.831787109
 31
0.000000000
  0
TEXT
  8
PLAIN_
  6
SOLID
 62
     7
 10
149.113708496
 20
164.165283203
 30
0.000000000
 40
10.000000000
  1
10
 50
0.000000000
 41
0.733230782
  0
ENDBLK
  0
BLOCK
  2
*D12
  8
PLAIN_
 70
    65
 10
0.000000000
 20
0.000000000
 30
0.000000000
  3
*D12
  0
LINE
  8
PLAIN_
  6
SOLID
 62
     7
 10
150.000000000
 20
25.376890182
 30
0.000000000
 11
150.000000000
 21
64.369148254
 31
0.000000000
  0
LINE
  8
PLAIN_
  6
SOLID
 62
     7
 10
198.000000000
 20
0.499988556
 30
0.000000000
 11
198.000000000
 21
64.369148254
 31
0.000000000
  0
LINE
  8
PLAIN_
  6
SOLID
 62
     7
 10
150.000000000
 20
63.869148254
 30
0.000000000
 11
198.000000000
 21
63.869148254
 31
0.000000000
  0
LINE
  8
PLAIN_
  6
SOLID
 62
     7
 10
160.000000000
 20
65.535644531
 30
0.000000000
 11
150.000000000
 21
63.869148254
 31
0.000000000
  0
LINE
  8
PLAIN_
  6
SOLID
 62
     7
 10
150.000000000
 20
63.869148254
 30
0.000000000
 11
160.000000000
 21
62.202648163
 31
0.000000000
  0
LINE
  8
PLAIN_
  6
SOLID
 62
     7
 10
160.000000000
 20
62.202648163
 30
0.000000000
 11
160.000000000
 21
65.535644531
 31
0.000000000
  0
LINE
  8
PLAIN_
  6
SOLID
 62
     7
 10
198.000000000
 20
63.869148254
 30
0.000000000
 11
150.000000000
 21
63.869148254
 31
0.000000000
  0
LINE
  8
PLAIN_
  6
SOLID
 62
     7
 10
188.000000000
 20
62.202648163
 30
0.000000000
 11
198.000000000
 21
63.869148254
 31
0.000000000
  0
LINE
  8
PLAIN_
  6
SOLID
 62
     7
 10
198.000000000
 20
63.869148254
 30
0.000000000
 11
188.000000000
 21
65.535644531
 31
0.000000000
  0
LINE
  8
PLAIN_
  6
SOLID
 62
     7
 10
188.000000000
 20
65.535644531
 30
0.000000000
 11
188.000000000
 21
62.202648163
 31
0.000000000
  0
TEXT
  8
PLAIN_
  6
SOLID
 62
     7
 10
165.083267212
 20
68.869148254
 30
0.000000000
 40
10.000000000
  1
48
 50
0.000000000
 41
0.769923067
  0
ENDBLK
  0
BLOCK
  2
*D13
  8
PLAIN_
 70
    65
 10
0.000000000
 20
0.000000000
 30
0.000000000
  3
*D13
  0
LINE
  8
PLAIN_
  6
SOLID
 62
     7
 10
163.014404297
 20
-7.699985504
 30
0.000000000
 11
163.014404297
 21
-56.244377136
 31
0.000000000
  0
LINE
  8
PLAIN_
  6
SOLID
 62
     7
 10
198.000000000
 20
-16.500000000
 30
0.000000000
 11
198.000000000
 21
-56.244377136
 31
0.000000000
  0
LINE
  8
PLAIN_
  6
SOLID
 62
     7
 10
163.014404297
 20
-55.744377136
 30
0.000000000
 11
198.000000000
 21
-55.744377136
 31
0.000000000
  0
LINE
  8
PLAIN_
  6
SOLID
 62
     7
 10
173.014404297
 20
-54.077877045
 30
0.000000000
 11
163.014404297
 21
-55.744377136
 31
0.000000000
  0
LINE
  8
PLAIN_
  6
SOLID
 62
     7
 10
163.014404297
 20
-55.744377136
 30
0.000000000
 11
173.014404297
 21
-57.410877228
 31
0.000000000
  0
LINE
  8
PLAIN_
  6
SOLID
 62
     7
 10
173.014404297
 20
-57.410877228
 30
0.000000000
 11
173.014404297
 21
-54.077877045
 31
0.000000000
  0
LINE
  8
PLAIN_
  6
SOLID
 62
     7
 10
198.000000000
 20
-55.744377136
 30
0.000000000
 11
163.014404297
 21
-55.744377136
 31
0.000000000
  0
LINE
  8
PLAIN_
  6
SOLID
 62
     7
 10
188.000000000
 20
-57.410877228
 30
0.000000000
 11
198.000000000
 21
-55.744377136
 31
0.000000000
  0
LINE
  8
PLAIN_
  6
SOLID
 62
     7
 10
198.000000000
 20
-55.744377136
 30
0.000000000
 11
188.000000000
 21
-54.077877045
 31
0.000000000
  0
LINE
  8
PLAIN_
  6
SOLID
 62
     7
 10
188.000000000
 20
-54.077877045
 30
0.000000000
 11
188.000000000
 21
-57.410877228
 31
0.000000000
  0
TEXT
  8
PLAIN_
  6
SOLID
 62
     7
 10
172.691070557
 20
-50.744377136
 30
0.000000000
 40
10.000000000
  1
35
 50
0.000000000
 41
0.733230782
  0
ENDBLK
  0
BLOCK
  2
*D14
  8
PLAIN_
 70
    65
 10
0.000000000
 20
0.000000000
 30
0.000000000
  3
*D14
  0
LINE
  8
PLAIN_
  6
SOLID
 62
     7
 10
-107.000000000
 20
-68.500000000
 30
0.000000000
 11
-107.000000000
 21
-226.305648804
 31
0.000000000
  0
LINE
  8
PLAIN_
  6
SOLID
 62
     7
 10
126.000000000
 20
-171.500000000
 30
0.000000000
 11
126.000000000
 21
-226.305648804
 31
0.000000000
  0
LINE
  8
PLAIN_
  6
SOLID
 62
     7
 10
-107.000000000
 20
-225.805648804
 30
0.000000000
 11
126.000000000
 21
-225.805648804
 31
0.000000000
  0
LINE
  8
PLAIN_
  6
SOLID
 62
     7
 10
-97.000000000
 20
-224.139144897
 30
0.000000000
 11
-107.000000000
 21
-225.805648804
 31
0.000000000
  0
LINE
  8
PLAIN_
  6
SOLID
 62
     7
 10
-107.000000000
 20
-225.805648804
 30
0.000000000
 11
-97.000000000
 21
-227.472152710
 31
0.000000000
  0
LINE
  8
PLAIN_
  6
SOLID
 62
     7
 10
-97.000000000
 20
-227.472152710
 30
0.000000000
 11
-97.000000000
 21
-224.139144897
 31
0.000000000
  0
LINE
  8
PLAIN_
  6
SOLID
 62
     7
 10
126.000000000
 20
-225.805648804
 30
0.000000000
 11
-107.000000000
 21
-225.805648804
 31
0.000000000
  0
LINE
  8
PLAIN_
  6
SOLID
 62
     7
 10
116.000000000
 20
-227.472152710
 30
0.000000000
 11
126.000000000
 21
-225.805648804
 31
0.000000000
  0
LINE
  8
PLAIN_
  6
SOLID
 62
     7
 10
126.000000000
 20
-225.805648804
 30
0.000000000
 11
116.000000000
 21
-224.139144897
 31
0.000000000
  0
LINE
  8
PLAIN_
  6
SOLID
 62
     7
 10
116.000000000
 20
-224.139144897
 30
0.000000000
 11
116.000000000
 21
-227.472152710
 31
0.000000000
  0
TEXT
  8
PLAIN_
  6
SOLID
 62
     7
 10
-8.935618401
 20
-220.805648804
 30
0.000000000
 40
10.000000000
  1
233
 50
0.000000000
 41
0.783230782
  0
ENDBLK
  0
BLOCK
  2
*D15
  8
PLAIN_
 70
    65
 10
0.000000000
 20
0.000000000
 30
0.000000000
  3
*D15
  0
LINE
  8
PLAIN_
  6
SOLID
 62
     7
 10
106.000030518
 20
-167.604949951
 30
0.000000000
 11
106.000030518
 21
-199.923950195
 31
0.000000000
  0
LINE
  8
PLAIN_
  6
SOLID
 62
     7
 10
126.000000000
 20
-171.500000000
 30
0.000000000
 11
126.000000000
 21
-199.923950195
 31
0.000000000
  0
LINE
  8
PLAIN_
  6
SOLID
 62
     7
 10
106.000030518
 20
-199.423950195
 30
0.000000000
 11
70.208969116
 21
-199.423950195
 31
0.000000000
  0
LINE
  8
PLAIN_
  6
SOLID
 62
     7
 10
70.208969116
 20
-199.423950195
 30
0.000000000
 11
141.000000000
 21
-199.423950195
 31
0.000000000
  0
LINE
  8
PLAIN_
  6
SOLID
 62
     7
 10
96.000030518
 20
-201.090454102
 30
0.000000000
 11
106.000030518
 21
-199.423950195
 31
0.000000000
  0
LINE
  8
PLAIN_
  6
SOLID
 62
     7
 10
106.000030518
 20
-199.423950195
 30
0.000000000
 11
96.000030518
 21
-197.757446289
 31
0.000000000
  0
LINE
  8
PLAIN_
  6
SOLID
 62
     7
 10
96.000030518
 20
-197.757446289
 30
0.000000000
 11
96.000030518
 21
-201.090454102
 31
0.000000000
  0
LINE
  8
PLAIN_
  6
SOLID
 62
     7
 10
126.000000000
 20
-199.423950195
 30
0.000000000
 11
141.000000000
 21
-199.423950195
 31
0.000000000
  0
LINE
  8
PLAIN_
  6
SOLID
 62
     7
 10
141.000000000
 20
-199.423950195
 30
0.000000000
 11
70.208969116
 21
-199.423950195
 31
0.000000000
  0
LINE
  8
PLAIN_
  6
SOLID
 62
     7
 10
136.000000000
 20
-197.757446289
 30
0.000000000
 11
126.000000000
 21
-199.423950195
 31
0.000000000
  0
LINE
  8
PLAIN_
  6
SOLID
 62
     7
 10
126.000000000
 20
-199.423950195
 30
0.000000000
 11
136.000000000
 21
-201.090454102
 31
0.000000000
  0
LINE
  8
PLAIN_
  6
SOLID
 62
     7
 10
136.000000000
 20
-201.090454102
 30
0.000000000
 11
136.000000000
 21
-197.757446289
 31
0.000000000
  0
TEXT
  8
PLAIN_
  6
SOLID
 62
     7
 10
74.625633240
 20
-194.423950195
 30
0.000000000
 40
10.000000000
  1
20
 50
0.000000000
 41
0.733230782
  0
ENDBLK
  0
BLOCK
  2
*D16
  8
PLAIN_
 70
    65
 10
0.000000000
 20
0.000000000
 30
0.000000000
  3
*D16
  0
LINE
  8
PLAIN_
  6
SOLID
 62
     7
 10
-57.500000000
 20
-87.500000000
 30
0.000000000
 11
-161.558090210
 21
-87.500000000
 31
0.000000000
  0
LINE
  8
PLAIN_
  6
SOLID
 62
     7
 10
-65.499984741
 20
87.500000000
 30
0.000000000
 11
-161.558090210
 21
87.500000000
 31
0.000000000
  0
LINE
  8
PLAIN_
  6
SOLID
 62
     7
 10
-161.058090210
 20
-87.500000000
 30
0.000000000
 11
-161.058090210
 21
87.500000000
 31
0.000000000
  0
LINE
  8
PLAIN_
  6
SOLID
 62
     7
 10
-162.724594116
 20
-77.500000000
 30
0.000000000
 11
-161.058090210
 21
-87.500000000
 31
0.000000000
  0
LINE
  8
PLAIN_
  6
SOLID
 62
     7
 10
-161.058090210
 20
-87.500000000
 30
0.000000000
 11
-159.391586304
 21
-77.500000000
 31
0.000000000
  0
LINE
  8
PLAIN_
  6
SOLID
 62
     7
 10
-159.391586304
 20
-77.500000000
 30
0.000000000
 11
-162.724594116
 21
-77.500000000
 31
0.000000000
  0
LINE
  8
PLAIN_
  6
SOLID
 62
     7
 10
-161.058090210
 20
87.500000000
 30
0.000000000
 11
-161.058090210
 21
-87.500000000
 31
0.000000000
  0
LINE
  8
PLAIN_
  6
SOLID
 62
     7
 10
-159.391586304
 20
77.500000000
 30
0.000000000
 11
-161.058090210
 21
87.500000000
 31
0.000000000
  0
LINE
  8
PLAIN_
  6
SOLID
 62
     7
 10
-161.058090210
 20
87.500000000
 30
0.000000000
 11
-162.724594116
 21
77.500000000
 31
0.000000000
  0
LINE
  8
PLAIN_
  6
SOLID
 62
     7
 10
-162.724594116
 20
77.500000000
 30
0.000000000
 11
-159.391586304
 21
77.500000000
 31
0.000000000
  0
TEXT
  8
PLAIN_
  6
SOLID
 62
     7
 10
-166.058090210
 20
-21.994136810
 30
0.000000000
 40
10.000000000
  1
%%c
 50
90.000002504
 41
0.666615391
  0
TEXT
  8
PLAIN_
  6
SOLID
 62
     7
 10
-166.058090210
 20
-13.160806656
 30
0.000000000
 40
10.000000000
  1
175
 50
90.000002504
 41
0.783230782
  0
TEXT
  8
PLAIN_
  6
SOLID
 62
     7
 10
-166.058090210
 20
13.339183807
 30
0.000000000
 40
10.000000000
  1
f7
 50
90.000002504
 41
0.733230782
  0
ENDBLK
  0
BLOCK
  2
*D17
  8
PLAIN_
 70
    65
 10
0.000000000
 20
0.000000000
 30
0.000000000
  3
*D17
  0
LINE
  8
PLAIN_
  6
SOLID
 62
     7
 10
126.500000000
 20
-132.500000000
 30
0.000000000
 11
249.297622681
 21
-132.500000000
 31
0.000000000
  0
LINE
  8
PLAIN_
  6
SOLID
 62
     7
 10
126.500000000
 20
132.500000000
 30
0.000000000
 11
249.297622681
 21
132.500000000
 31
0.000000000
  0
LINE
  8
PLAIN_
  6
SOLID
 62
     7
 10
248.797622681
 20
-132.500000000
 30
0.000000000
 11
248.797622681
 21
132.500000000
 31
0.000000000
  0
LINE
  8
PLAIN_
  6
SOLID
 62
     7
 10
247.131118774
 20
-122.500007629
 30
0.000000000
 11
248.797622681
 21
-132.500000000
 31
0.000000000
  0
LINE
  8
PLAIN_
  6
SOLID
 62
     7
 10
248.797622681
 20
-132.500000000
 30
0.000000000
 11
250.464126587
 21
-122.500007629
 31
0.000000000
  0
LINE
  8
PLAIN_
  6
SOLID
 62
     7
 10
250.464126587
 20
-122.500007629
 30
0.000000000
 11
247.131118774
 21
-122.500007629
 31
0.000000000
  0
LINE
  8
PLAIN_
  6
SOLID
 62
     7
 10
248.797622681
 20
132.500000000
 30
0.000000000
 11
248.797622681
 21
-132.500000000
 31
0.000000000
  0
LINE
  8
PLAIN_
  6
SOLID
 62
     7
 10
250.464126587
 20
122.500007629
 30
0.000000000
 11
248.797622681
 21
132.500000000
 31
0.000000000
  0
LINE
  8
PLAIN_
  6
SOLID
 62
     7
 10
248.797622681
 20
132.500000000
 30
0.000000000
 11
247.131118774
 21
122.500007629
 31
0.000000000
  0
LINE
  8
PLAIN_
  6
SOLID
 62
     7
 10
247.131118774
 20
122.500007629
 30
0.000000000
 11
250.464126587
 21
122.500007629
 31
0.000000000
  0
TEXT
  8
PLAIN_
  6
SOLID
 62
     7
 10
243.797622681
 20
-17.628499985
 30
0.000000000
 40
10.000000000
  1
%%c
 50
90.000002504
 41
0.666615391
  0
TEXT
  8
PLAIN_
  6
SOLID
 62
     7
 10
243.797622681
 20
-8.795169830
 30
0.000000000
 40
10.000000000
  1
265
 50
90.000002504
 41
0.783230782
  0
TEXT
  8
PLAIN_
  6
SOLID
 62
     7
 10
243.797622681
 20
17.704820633
 30
0.000000000
 40
10.000000000
  1
f7
 50
90.000002504
 41
0.733230782
  0
ENDBLK
  0
BLOCK
  2
*D18
  8
PLAIN_
 70
    65
 10
0.000000000
 20
0.000000000
 30
0.000000000
  3
*D18
  0
LINE
  8
PLAIN_
  6
SOLID
 62
     7
 10
195.300048828
 20
-7.999984741
 30
0.000000000
 11
218.932495117
 21
-7.999984741
 31
0.000000000
  0
LINE
  8
PLAIN_
  6
SOLID
 62
     7
 10
195.300048828
 20
8.000015259
 30
0.000000000
 11
218.932495117
 21
8.000015259
 31
0.000000000
  0
LINE
  8
PLAIN_
  6
SOLID
 62
     7
 10
218.432495117
 20
-7.999984741
 30
0.000000000
 11
218.432495117
 21
-61.267715454
 31
0.000000000
  0
LINE
  8
PLAIN_
  6
SOLID
 62
     7
 10
218.432495117
 20
-61.267715454
 30
0.000000000
 11
218.432495117
 21
23.000015259
 31
0.000000000
  0
LINE
  8
PLAIN_
  6
SOLID
 62
     7
 10
220.098999023
 20
-17.999984741
 30
0.000000000
 11
218.432495117
 21
-7.999984741
 31
0.000000000
  0
LINE
  8
PLAIN_
  6
SOLID
 62
     7
 10
218.432495117
 20
-7.999984741
 30
0.000000000
 11
216.765991211
 21
-17.999984741
 31
0.000000000
  0
LINE
  8
PLAIN_
  6
SOLID
 62
     7
 10
216.765991211
 20
-17.999984741
 30
0.000000000
 11
220.098999023
 21
-17.999984741
 31
0.000000000
  0
LINE
  8
PLAIN_
  6
SOLID
 62
     7
 10
218.432495117
 20
8.000015259
 30
0.000000000
 11
218.432495117
 21
23.000015259
 31
0.000000000
  0
LINE
  8
PLAIN_
  6
SOLID
 62
     7
 10
218.432495117
 20
23.000015259
 30
0.000000000
 11
218.432495117
 21
-61.267715454
 31
0.000000000
  0
LINE
  8
PLAIN_
  6
SOLID
 62
     7
 10
216.765991211
 20
18.000015259
 30
0.000000000
 11
218.432495117
 21
8.000015259
 31
0.000000000
  0
LINE
  8
PLAIN_
  6
SOLID
 62
     7
 10
218.432495117
 20
8.000015259
 30
0.000000000
 11
220.098999023
 21
18.000015259
 31
0.000000000
  0
LINE
  8
PLAIN_
  6
SOLID
 62
     7
 10
220.098999023
 20
18.000015259
 30
0.000000000
 11
216.765991211
 21
18.000015259
 31
0.000000000
  0
TEXT
  8
PLAIN_
  6
SOLID
 62
     7
 10
213.432495117
 20
-56.851051331
 30
0.000000000
 40
10.000000000
  1
M
 50
90.000002504
 41
0.666615391
  0
TEXT
  8
PLAIN_
  6
SOLID
 62
     7
 10
213.432495117
 20
-48.017723083
 30
0.000000000
 40
10.000000000
  1
16
 50
90.000002504
 41
0.774923086
  0
ENDBLK
  0
BLOCK
  2
*D19
  8
PLAIN_
 70
    65
 10
0.000000000
 20
0.000000000
 30
0.000000000
  3
*D19
  0
LINE
  8
PLAIN_
  6
SOLID
 62
     7
 10
161.308288574
 20
-155.000000000
 30
0.000000000
 11
270.173858643
 21
-155.000000000
 31
0.000000000
  0
LINE
  8
PLAIN_
  6
SOLID
 62
     7
 10
269.673858643
 20
-155.000000000
 30
0.000000000
 11
269.673858643
 21
23.298446655
 31
0.000000000
  0
LINE
  8
PLAIN_
  6
SOLID
 62
     7
 10
268.007354736
 20
-145.000000000
 30
0.000000000
 11
269.673858643
 21
-155.000000000
 31
0.000000000
  0
LINE
  8
PLAIN_
  6
SOLID
 62
     7
 10
269.673858643
 20
-155.000000000
 30
0.000000000
 11
271.340362549
 21
-145.000000000
 31
0.000000000
  0
LINE
  8
PLAIN_
  6
SOLID
 62
     7
 10
271.340362549
 20
-145.000000000
 30
0.000000000
 11
268.007354736
 21
-145.000000000
 31
0.000000000
  0
LINE
  8
PLAIN_
  6
SOLID
 62
     7
 10
269.673858643
 20
23.298446655
 30
0.000000000
 11
269.673858643
 21
-155.000000000
 31
0.000000000
  0
TEXT
  8
PLAIN_
  6
SOLID
 62
     7
 10
264.673858643
 20
-64.401664734
 30
0.000000000
 40
10.000000000
  1
%%c
 50
90.000002504
 41
0.666615391
  0
TEXT
  8
PLAIN_
  6
SOLID
 62
     7
 10
264.673858643
 20
-55.568336487
 30
0.000000000
 40
10.000000000
  1
310
 50
90.000002504
 41
0.783230782
  0
ENDBLK
  0
BLOCK
  2
*L3
  8
PLAIN_
 70
    65
 10
0.000000000
 20
0.000000000
 30
0.000000000
  3
*L3
  0
LINE
  8
PLAIN_
  6
SOLID
 62
     7
 10
182.614105225
 20
19.338003159
 30
0.000000000
 11
219.419448853
 21
209.666030884
 31
0.000000000
  0
LINE
  8
PLAIN_
  6
SOLID
 62
     7
 10
219.419448853
 20
209.666030884
 30
0.000000000
 11
232.022003174
 21
209.666030884
 31
0.000000000
  0
LINE
  8
PLAIN_
  6
SOLID
 62
     7
 10
182.876525879
 20
29.472515106
 30
0.000000000
 11
182.614105225
 21
19.338003159
 31
0.000000000
  0
LINE
  8
PLAIN_
  6
SOLID
 62
     7
 10
182.614105225
 20
19.338003159
 30
0.000000000
 11
186.148895264
 21
28.839710236
 31
0.000000000
  0
LINE
  8
PLAIN_
  6
SOLID
 62
     7
 10
186.148895264
 20
28.839710236
 30
0.000000000
 11
182.876525879
 21
29.472515106
 31
0.000000000
  0
TEXT
  8
PLAIN_
  6
SOLID
 62
     7
 10
237.022003174
 20
212.166030884
 30
0.000000000
 40
10.000000000
  1
40x3x12-8f
 50
0.000000000
 41
0.836569138
  0
TEXT
  8
PLAIN_
  6
SOLID
 62
     7
 10
237.022003174
 20
197.166030884
 30
0.000000000
 40
10.000000000
  1
din 5480
 50
0.000000000
 41
0.845730686
  0
ENDBLK
  0
BLOCK
  2
*D20
  8
PLAIN_
 70
    65
 10
0.000000000
 20
0.000000000
 30
0.000000000
  3
*D20
  0
LINE
  8
PLAIN_
  6
SOLID
 62
     7
 10
-15.499961853
 20
-190.000000000
 30
0.000000000
 11
-191.577926636
 21
-190.000000000
 31
0.000000000
  0
LINE
  8
PLAIN_
  6
SOLID
 62
     7
 10
-15.499961853
 20
190.000000000
 30
0.000000000
 11
-191.577926636
 21
190.000000000
 31
0.000000000
  0
LINE
  8
PLAIN_
  6
SOLID
 62
     7
 10
-191.077926636
 20
-190.000000000
 30
0.000000000
 11
-191.077926636
 21
190.000000000
 31
0.000000000
  0
LINE
  8
PLAIN_
  6
SOLID
 62
     7
 10
-192.744430542
 20
-180.000000000
 30
0.000000000
 11
-191.077926636
 21
-190.000000000
 31
0.000000000
  0
LINE
  8
PLAIN_
  6
SOLID
 62
     7
 10
-191.077926636
 20
-190.000000000
 30
0.000000000
 11
-189.411422729
 21
-180.000000000
 31
0.000000000
  0
LINE
  8
PLAIN_
  6
SOLID
 62
     7
 10
-189.411422729
 20
-180.000000000
 30
0.000000000
 11
-192.744430542
 21
-180.000000000
 31
0.000000000
  0
LINE
  8
PLAIN_
  6
SOLID
 62
     7
 10
-191.077926636
 20
190.000000000
 30
0.000000000
 11
-191.077926636
 21
-190.000000000
 31
0.000000000
  0
LINE
  8
PLAIN_
  6
SOLID
 62
     7
 10
-189.411422729
 20
180.000000000
 30
0.000000000
 11
-191.077926636
 21
190.000000000
 31
0.000000000
  0
LINE
  8
PLAIN_
  6
SOLID
 62
     7
 10
-191.077926636
 20
190.000000000
 30
0.000000000
 11
-192.744430542
 21
180.000000000
 31
0.000000000
  0
LINE
  8
PLAIN_
  6
SOLID
 62
     7
 10
-192.744430542
 20
180.000000000
 30
0.000000000
 11
-189.411422729
 21
180.000000000
 31
0.000000000
  0
TEXT
  8
PLAIN_
  6
SOLID
 62
     7
 10
-196.077926636
 20
-24.649353027
 30
0.000000000
 40
10.000000000
  1
%%c
 50
90.000002504
 41
0.666615391
  0
TEXT
  8
PLAIN_
  6
SOLID
 62
     7
 10
-196.077926636
 20
-15.816022873
 30
0.000000000
 40
10.000000000
  1
380
 50
90.000002504
 41
0.783230782
  0
TEXT
  8
PLAIN_
  6
SOLID
 62
     7
 10
-206.577926636
 20
13.683967590
 30
0.000000000
 40
7.000000000
  1
+1.0
 50
90.000002504
 41
0.808230809
  0
TEXT
  8
PLAIN_
  6
SOLID
 62
     7
 10
-191.577926636
 20
13.683968544
 30
0.000000000
 40
7.000000000
  1
-0.0
 50
90.000002504
 41
0.808230809
  0
ENDBLK
  0
BLOCK
  2
*D21
  8
PLAIN_
 70
    65
 10
0.000000000
 20
0.000000000
 30
0.000000000
  3
*D21
  0
LINE
  8
PLAIN_
  6
SOLID
 62
     7
 10
-66.000000000
 20
87.000000000
 30
0.000000000
 11
-66.000000000
 21
214.378402710
 31
0.000000000
  0
LINE
  8
PLAIN_
  6
SOLID
 62
     7
 10
126.000000000
 20
171.500000000
 30
0.000000000
 11
126.000000000
 21
214.378402710
 31
0.000000000
  0
LINE
  8
PLAIN_
  6
SOLID
 62
     7
 10
-66.000000000
 20
213.878402710
 30
0.000000000
 11
126.000000000
 21
213.878402710
 31
0.000000000
  0
LINE
  8
PLAIN_
  6
SOLID
 62
     7
 10
-56.000003815
 20
215.544906616
 30
0.000000000
 11
-66.000000000
 21
213.878402710
 31
0.000000000
  0
LINE
  8
PLAIN_
  6
SOLID
 62
     7
 10
-66.000000000
 20
213.878402710
 30
0.000000000
 11
-56.000003815
 21
212.211898804
 31
0.000000000
  0
LINE
  8
PLAIN_
  6
SOLID
 62
     7
 10
-56.000003815
 20
212.211898804
 30
0.000000000
 11
-56.000003815
 21
215.544906616
 31
0.000000000
  0
LINE
  8
PLAIN_
  6
SOLID
 62
     7
 10
126.000000000
 20
213.878402710
 30
0.000000000
 11
-66.000000000
 21
213.878402710
 31
0.000000000
  0
LINE
  8
PLAIN_
  6
SOLID
 62
     7
 10
116.000000000
 20
212.211898804
 30
0.000000000
 11
126.000000000
 21
213.878402710
 31
0.000000000
  0
LINE
  8
PLAIN_
  6
SOLID
 62
     7
 10
126.000000000
 20
213.878402710
 30
0.000000000
 11
116.000000000
 21
215.544906616
 31
0.000000000
  0
LINE
  8
PLAIN_
  6
SOLID
 62
     7
 10
116.000000000
 20
215.544906616
 30
0.000000000
 11
116.000000000
 21
212.211898804
 31
0.000000000
  0
TEXT
  8
PLAIN_
  6
SOLID
 62
     7
 10
13.816395760
 20
218.878402710
 30
0.000000000
 40
10.000000000
  1
192
 50
0.000000000
 41
0.783230782
  0
ENDBLK
  0
BLOCK
  2
*D22
  8
PLAIN_
 70
    65
 10
0.000000000
 20
0.000000000
 30
0.000000000
  3
*D22
  0
LINE
  8
PLAIN_
  6
SOLID
 62
     7
 10
-107.000000000
 20
-68.500000000
 30
0.000000000
 11
-107.000000000
 21
-117.317085266
 31
0.000000000
  0
LINE
  8
PLAIN_
  6
SOLID
 62
     7
 10
-66.000000000
 20
-53.000000000
 30
0.000000000
 11
-66.000000000
 21
-117.317085266
 31
0.000000000
  0
LINE
  8
PLAIN_
  6
SOLID
 62
     7
 10
-107.000000000
 20
-116.817085266
 30
0.000000000
 11
-66.000000000
 21
-116.817085266
 31
0.000000000
  0
LINE
  8
PLAIN_
  6
SOLID
 62
     7
 10
-97.000000000
 20
-115.150588989
 30
0.000000000
 11
-107.000000000
 21
-116.817085266
 31
0.000000000
  0
LINE
  8
PLAIN_
  6
SOLID
 62
     7
 10
-107.000000000
 20
-116.817085266
 30
0.000000000
 11
-97.000000000
 21
-118.483581543
 31
0.000000000
  0
LINE
  8
PLAIN_
  6
SOLID
 62
     7
 10
-97.000000000
 20
-118.483581543
 30
0.000000000
 11
-97.000000000
 21
-115.150588989
 31
0.000000000
  0
LINE
  8
PLAIN_
  6
SOLID
 62
     7
 10
-66.000000000
 20
-116.817085266
 30
0.000000000
 11
-107.000000000
 21
-116.817085266
 31
0.000000000
  0
LINE
  8
PLAIN_
  6
SOLID
 62
     7
 10
-76.000000000
 20
-118.483581543
 30
0.000000000
 11
-66.000000000
 21
-116.817085266
 31
0.000000000
  0
LINE
  8
PLAIN_
  6
SOLID
 62
     7
 10
-66.000000000
 20
-116.817085266
 30
0.000000000
 11
-76.000000000
 21
-115.150588989
 31
0.000000000
  0
LINE
  8
PLAIN_
  6
SOLID
 62
     7
 10
-76.000000000
 20
-115.150588989
 30
0.000000000
 11
-76.000000000
 21
-118.483581543
 31
0.000000000
  0
TEXT
  8
PLAIN_
  6
SOLID
 62
     7
 10
-94.570129395
 20
-111.817085266
 30
0.000000000
 40
10.000000000
  1
41
 50
0.000000000
 41
0.608230782
  0
ENDBLK
  0
BLOCK
  2
*D23
  8
PLAIN_
 70
    65
 10
0.000000000
 20
0.000000000
 30
0.000000000
  3
*D23
  0
LINE
  8
PLAIN_
  6
SOLID
 62
     7
 10
461.328063965
 20
-74.725143433
 30
0.000000000
 11
461.328063965
 21
-106.259735107
 31
0.000000000
  0
LINE
  8
PLAIN_
  6
SOLID
 62
     7
 10
530.328063965
 20
-74.233634949
 30
0.000000000
 11
530.328063965
 21
-106.259735107
 31
0.000000000
  0
LINE
  8
PLAIN_
  6
SOLID
 62
     7
 10
461.328063965
 20
-105.759735107
 30
0.000000000
 11
530.328063965
 21
-105.759735107
 31
0.000000000
  0
LINE
  8
PLAIN_
  6
SOLID
 62
     7
 10
471.328063965
 20
-104.093238831
 30
0.000000000
 11
461.328063965
 21
-105.759735107
 31
0.000000000
  0
LINE
  8
PLAIN_
  6
SOLID
 62
     7
 10
461.328063965
 20
-105.759735107
 30
0.000000000
 11
471.328063965
 21
-107.426231384
 31
0.000000000
  0
LINE
  8
PLAIN_
  6
SOLID
 62
     7
 10
471.328063965
 20
-107.426231384
 30
0.000000000
 11
471.328063965
 21
-104.093238831
 31
0.000000000
  0
LINE
  8
PLAIN_
  6
SOLID
 62
     7
 10
530.328063965
 20
-105.759735107
 30
0.000000000
 11
461.328063965
 21
-105.759735107
 31
0.000000000
  0
LINE
  8
PLAIN_
  6
SOLID
 62
     7
 10
520.328063965
 20
-107.426231384
 30
0.000000000
 11
530.328063965
 21
-105.759735107
 31
0.000000000
  0
LINE
  8
PLAIN_
  6
SOLID
 62
     7
 10
530.328063965
 20
-105.759735107
 30
0.000000000
 11
520.328063965
 21
-104.093238831
 31
0.000000000
  0
LINE
  8
PLAIN_
  6
SOLID
 62
     7
 10
520.328063965
 20
-104.093238831
 30
0.000000000
 11
520.328063965
 21
-107.426231384
 31
0.000000000
  0
TEXT
  8
PLAIN_
  6
SOLID
 62
     7
 10
487.671722412
 20
-100.759735107
 30
0.000000000
 40
10.000000000
  1
69
 50
0.000000000
 41
0.733230782
  0
ENDBLK
  0
BLOCK
  2
*D24
  8
PLAIN_
 70
    65
 10
0.000000000
 20
0.000000000
 30
0.000000000
  3
*D24
  0
LINE
  8
PLAIN_
  6
SOLID
 62
     7
 10
126.500000000
 20
-171.000000000
 30
0.000000000
 11
293.471038818
 21
-171.000000000
 31
0.000000000
  0
LINE
  8
PLAIN_
  6
SOLID
 62
     7
 10
292.971038818
 20
-171.000000000
 30
0.000000000
 11
292.971038818
 21
-98.667724609
 31
0.000000000
  0
LINE
  8
PLAIN_
  6
SOLID
 62
     7
 10
291.304534912
 20
-161.000000000
 30
0.000000000
 11
292.971038818
 21
-171.000000000
 31
0.000000000
  0
LINE
  8
PLAIN_
  6
SOLID
 62
     7
 10
292.971038818
 20
-171.000000000
 30
0.000000000
 11
294.637542725
 21
-161.000000000
 31
0.000000000
  0
LINE
  8
PLAIN_
  6
SOLID
 62
     7
 10
294.637542725
 20
-161.000000000
 30
0.000000000
 11
291.304534912
 21
-161.000000000
 31
0.000000000
  0
LINE
  8
PLAIN_
  6
SOLID
 62
     7
 10
292.971038818
 20
0.000000000
 30
0.000000000
 11
292.971038818
 21
-171.000000000
 31
0.000000000
  0
LINE
  8
PLAIN_
  6
SOLID
 62
     7
 10
292.971038818
 20
-171.000000000
 30
0.000000000
 11
292.971038818
 21
-98.667724609
 31
0.000000000
  0
TEXT
  8
PLAIN_
  6
SOLID
 62
     7
 10
287.971038818
 20
-135.414642334
 30
0.000000000
 40
10.000000000
  1
%%c
 50
90.000002504
 41
0.666615391
  0
TEXT
  8
PLAIN_
  6
SOLID
 62
     7
 10
287.971038818
 20
-126.581314087
 30
0.000000000
 40
10.000000000
  1
342
 50
90.000002504
 41
0.783230782
  0
ENDBLK
  0
BLOCK
  2
*L4
  8
PLAIN_
 70
    65
 10
0.000000000
 20
0.000000000
 30
0.000000000
  3
*L4
  0
LINE
  8
PLAIN_
  6
SOLID
 62
     7
 10
-115.876205444
 20
-73.082763672
 30
0.000000000
 11
-147.159408569
 21
-118.928810120
 31
0.000000000
  0
LINE
  8
PLAIN_
  6
SOLID
 62
     7
 10
-147.159408569
 20
-118.928810120
 30
0.000000000
 11
-147.159393311
 21
-147.856735229
 31
0.000000000
  0
LINE
  8
PLAIN_
  6
SOLID
 62
     7
 10
-120.136024475
 20
-82.282279968
 30
0.000000000
 11
-115.876205444
 21
-73.082763672
 31
0.000000000
  0
LINE
  8
PLAIN_
  6
SOLID
 62
     7
 10
-115.876205444
 20
-73.082763672
 30
0.000000000
 11
-122.889152527
 21
-80.403678894
 31
0.000000000
  0
LINE
  8
PLAIN_
  6
SOLID
 62
     7
 10
-122.889152527
 20
-80.403678894
 30
0.000000000
 11
-120.136024475
 21
-82.282279968
 31
0.000000000
  0
TEXT
  8
PLAIN_
  6
SOLID
 62
     7
 10
-181.437408447
 20
-166.392959595
 30
0.000000000
 40
10.000000000
  1
N%%d2 HOLES
 50
0.000000000
 41
0.761733670
  0
TEXT
  8
PLAIN_
  6
SOLID
 62
     7
 10
-181.437408447
 20
-181.392959595
 30
0.000000000
 40
10.000000000
  1
1" BSP
 50
0.000000000
 41
0.730177752
  0
ENDBLK
  0
ENDSEC
  0
SECTION
  2
ENTITIES
  0
TEXT
  8
PLAIN_
  6
SOLID
 62
     7
 10
494.159973145
 20
172.189712524
 30
0.000000000
 40
5.000000000
  1
1
 50
0.000000000
 41
0.408672523
  0
TEXT
  8
PLAIN_
  6
SOLID
 62
     7
 10
330.246185303
 20
51.675746918
 30
0.000000000
 40
5.000000000
  1
5
 50
72.000002004
 41
0.616049480
  0
TEXT
  8
PLAIN_
  6
SOLID
 62
     7
 10
337.689575195
 20
-48.925842285
 30
0.000000000
 40
10.000000000
  1
X
 50
-70.000006501
 41
0.715176916
  0
TEXT
  8
PLAIN_
  6
SOLID
 62
     7
 10
660.378723145
 20
54.848320007
 30
0.000000000
 40
5.000000000
  1
2
 50
-71.999995173
 41
0.636726379
  0
TEXT
  8
PLAIN_
  6
SOLID
 62
     7
 10
584.559814453
 20
127.903968811
 30
0.000000000
 40
10.000000000
  1
Y
 50
-36.000001002
 41
0.718217611
  0
TEXT
  8
PLAIN_
  6
SOLID
 62
     7
 10
41.793632507
 20
7.336259842
 30
0.000000000
 40
15.000000000
  1
GM3
 50
0.000000000
 41
0.786937883
  0
TEXT
  8
PLAIN_
  6
SOLID
 62
     7
 10
-112.790512085
 20
2.515459061
 30
0.000000000
 40
8.000000000
  1
D 40
 50
0.000000000
 41
0.861283422
  0
INSERT
  2
*D1
  8
PLAIN_
 41
1.000000000
 50
0.000000000
 10
0.000000000
 20
0.000000000
 30
0.000000000
  0
INSERT
  2
*L1
  8
PLAIN_
 41
1.000000000
 50
0.000000000
 10
0.000000000
 20
0.000000000
 30
0.000000000
  0
INSERT
  2
*H1
  8
PLAIN_
 41
1.000000000
 50
0.000000000
 10
0.000000000
 20
0.000000000
 30
0.000000000
  0
INSERT
  2
*D2
  8
PLAIN_
 41
1.000000000
 50
0.000000000
 10
0.000000000
 20
0.000000000
 30
0.000000000
  0
INSERT
  2
*D3
  8
PLAIN_
 41
1.000000000
 50
0.000000000
 10
0.000000000
 20
0.000000000
 30
0.000000000
  0
TEXT
  8
PLAIN_
  6
SOLID
 62
     7
 10
459.122863770
 20
-58.454124451
 30
0.000000000
 40
8.000000000
  1
B
 50
0.000005009
 41
0.718825758
  0
TEXT
  8
PLAIN_
  6
SOLID
 62
     7
 10
526.642700195
 20
-58.765983582
 30
0.000000000
 40
8.000000000
  1
A
 50
0.000005009
 41
0.820385754
  0
INSERT
  2
*D4
  8
PLAIN_
 41
1.000000000
 50
0.000000000
 10
0.000000000
 20
0.000000000
 30
0.000000000
  0
INSERT
  2
*D5
  8
PLAIN_
 41
1.000000000
 50
0.000000000
 10
0.000000000
 20
0.000000000
 30
0.000000000
  0
INSERT
  2
*D6
  8
PLAIN_
 41
1.000000000
 50
0.000000000
 10
0.000000000
 20
0.000000000
 30
0.000000000
  0
INSERT
  2
*D7
  8
PLAIN_
 41
1.000000000
 50
0.000000000
 10
0.000000000
 20
0.000000000
 30
0.000000000
  0
INSERT
  2
*D8
  8
PLAIN_
 41
1.000000000
 50
0.000000000
 10
0.000000000
 20
0.000000000
 30
0.000000000
  0
INSERT
  2
*L2
  8
PLAIN_
 41
1.000000000
 50
0.000000000
 10
0.000000000
 20
0.000000000
 30
0.000000000
  0
INSERT
  2
*D9
  8
PLAIN_
 41
1.000000000
 50
0.000000000
 10
0.000000000
 20
0.000000000
 30
0.000000000
  0
INSERT
  2
*D10
  8
PLAIN_
 41
1.000000000
 50
0.000000000
 10
0.000000000
 20
0.000000000
 30
0.000000000
  0
INSERT
  2
*D11
  8
PLAIN_
 41
1.000000000
 50
0.000000000
 10
0.000000000
 20
0.000000000
 30
0.000000000
  0
INSERT
  2
*D12
  8
PLAIN_
 41
1.000000000
 50
0.000000000
 10
0.000000000
 20
0.000000000
 30
0.000000000
  0
INSERT
  2
*D13
  8
PLAIN_
 41
1.000000000
 50
0.000000000
 10
0.000000000
 20
0.000000000
 30
0.000000000
  0
INSERT
  2
*D14
  8
PLAIN_
 41
1.000000000
 50
0.000000000
 10
0.000000000
 20
0.000000000
 30
0.000000000
  0
INSERT
  2
*D15
  8
PLAIN_
 41
1.000000000
 50
0.000000000
 10
0.000000000
 20
0.000000000
 30
0.000000000
  0
INSERT
  2
*D16
  8
PLAIN_
 41
1.000000000
 50
0.000000000
 10
0.000000000
 20
0.000000000
 30
0.000000000
  0
INSERT
  2
*D17
  8
PLAIN_
 41
1.000000000
 50
0.000000000
 10
0.000000000
 20
0.000000000
 30
0.000000000
  0
INSERT
  2
*D18
  8
PLAIN_
 41
1.000000000
 50
0.000000000
 10
0.000000000
 20
0.000000000
 30
0.000000000
  0
INSERT
  2
*D19
  8
PLAIN_
 41
1.000000000
 50
0.000000000
 10
0.000000000
 20
0.000000000
 30
0.000000000
  0
INSERT
  2
*L3
  8
PLAIN_
 41
1.000000000
 50
0.000000000
 10
0.000000000
 20
0.000000000
 30
0.000000000
  0
INSERT
  2
*D20
  8
PLAIN_
 41
1.000000000
 50
0.000000000
 10
0.000000000
 20
0.000000000
 30
0.000000000
  0
INSERT
  2
*D21
  8
PLAIN_
 41
1.000000000
 50
0.000000000
 10
0.000000000
 20
0.000000000
 30
0.000000000
  0
INSERT
  2
*D22
  8
PLAIN_
 41
1.000000000
 50
0.000000000
 10
0.000000000
 20
0.000000000
 30
0.000000000
  0
INSERT
  2
*D23
  8
PLAIN_
 41
1.000000000
 50
0.000000000
 10
0.000000000
 20
0.000000000
 30
0.000000000
  0
INSERT
  2
*D24
  8
PLAIN_
 41
1.000000000
 50
0.000000000
 10
0.000000000
 20
0.000000000
 30
0.000000000
  0
INSERT
  2
*L4
  8
PLAIN_
 41
1.000000000
 50
0.000000000
 10
0.000000000
 20
0.000000000
 30
0.000000000
  0
LINE
  8
PLAIN_
  6
SOLID
 62
     7
 10
450.855731964
 20
-13.731722832
 30
0.000000000
 11
450.855731964
 21
-19.456851006
 31
0.000000000
  0
LINE
  8
PLAIN_
  6
SOLID
 62
     7
 10
445.897617340
 20
-10.869151115
 30
0.000000000
 11
450.855716724
 21
-13.731707636
 31
0.000000000
  0
ARC
  8
PLAIN_
  6
SOLID
 62
     7
 10
515.828079224
 20
-149.371252060
 30
0.000000000
 40
1.000000000
 50
0.000000000
 51
90.000000000
  0
ARC
  8
PLAIN_
  6
SOLID
 62
     7
 10
515.828079224
 20
-179.371252060
 30
0.000000000
 40
1.000000000
 50
270.000000000
 51
0.000000000
  0
ARC
  8
PLAIN_
  6
SOLID
 62
     7
 10
475.828079224
 20
-179.371252060
 30
0.000000000
 40
1.000000000
 50
180.000000000
 51
270.000000000
  0
ARC
  8
PLAIN_
  6
SOLID
 62
     7
 10
475.828079224
 20
-149.371252060
 30
0.000000000
 40
1.000000000
 50
90.000000000
 51
180.000000000
  0
ARC
  8
PLAIN_
  6
SOLID
 62
     7
 10
-27.999996185
 20
-114.628758673
 30
0.000000000
 40
3.000000000
 50
0.000000000
 51
87.000000000
  0
LINE
  8
PLAIN_
  6
SOLID
 62
     7
 10
475.828079224
 20
-180.371252060
 30
0.000000000
 11
515.828079224
 21
-180.371252060
 31
0.000000000
  0
LINE
  8
PLAIN_
  6
SOLID
 62
     7
 10
475.828079224
 20
-148.371252060
 30
0.000000000
 11
515.828079224
 21
-148.371252060
 31
0.000000000
  0
LINE
  8
PLAIN_
  6
SOLID
 62
     7
 10
440.939517975
 20
-13.731722832
 30
0.000000000
 11
445.897601825
 21
-10.869151257
 31
0.000000000
  0
ARC
  8
PLAIN_
  6
SOLID
 62
     7
 10
495.828079224
 20
-52.871030807
 30
0.000000000
 40
12.500000000
 50
0.000000000
 51
180.000032330
  0
LINE
  8
PLAIN_
  6
SOLID
 62
     7
 10
440.939517975
 20
-19.456851006
 30
0.000000000
 11
440.939502716
 21
-13.731722832
 31
0.000000000
  0
ARC
  8
PLAIN_
  6
SOLID
 62
     7
 10
545.758557020
 20
-16.594423209
 30
0.000000000
 40
11.000000000
 50
260.849897740
 51
153.150146208
  0
LINE
  8
PLAIN_
  6
SOLID
 62
     7
 10
445.897632599
 20
-22.319422722
 30
0.000000000
 11
440.939518116
 21
-19.456851104
 31
0.000000000
  0
CIRCLE
  8
PLAIN_
  6
SOLID
 62
     7
 10
526.686794284
 20
42.102372569
 30
0.000000000
 40
11.000000000
  0
LINE
  8
PLAIN_
  6
SOLID
 62
     7
 10
450.855731964
 20
-19.456843376
 30
0.000000000
 11
445.897632566
 21
-22.319422852
 31
0.000000000
  0
ARC
  8
PLAIN_
  6
SOLID
 62
     7
 10
-18.972903336
 20
190.269699681
 30
0.000000000
 40
3.000000000
 50
273.000000000
 51
315.000000000
  0
LINE
  8
PLAIN_
  6
SOLID
 62
     7
 10
-56.999996185
 20
-110.104816035
 30
0.000000000
 11
-27.842988317
 21
-111.632870068
 31
0.000000000
  0
LINE
  8
PLAIN_
  6
SOLID
 62
     7
 10
-56.999996185
 20
110.417421921
 30
0.000000000
 11
-56.999996185
 21
-0.000000477
 31
0.000000000
  0
LINE
  8
PLAIN_
  6
SOLID
 62
     7
 10
-53.999996185
 20
180.685067659
 30
0.000000000
 11
-53.999996185
 21
114.999997616
 31
0.000000000
  0
LINE
  8
PLAIN_
  6
SOLID
 62
     7
 10
-1.000057220
 20
190.000001431
 30
0.000000000
 11
0.000003815
 21
188.999940395
 31
0.000000000
  0
LINE
  8
PLAIN_
  6
SOLID
 62
     7
 10
-66.000000000
 20
-52.500013351
 30
0.000000000
 11
-66.000000000
 21
-86.500001907
 31
0.000000000
  0
ARC
  8
PLAIN_
  6
SOLID
 62
     7
 10
-48.999996185
 20
180.685067659
 30
0.000000000
 40
5.000000000
 50
93.000000000
 51
180.000000000
  0
CIRCLE
  8
PLAIN_
  6
SOLID
 62
     7
 10
445.897617340
 20
-16.594286919
 30
0.000000000
 40
9.000000000
  0
ARC
  8
PLAIN_
  6
L_DASH
 62
     7
 10
495.828060969
 20
-0.371028677
 30
0.000000000
 40
171.000000000
 50
57.352533690
 51
119.018993527
  0
ARC
  8
PLAIN_
  6
SOLID
 62
     7
 10
495.828070802
 20
-0.371048050
 30
0.000000000
 40
171.000000000
 50
129.352535685
 51
132.936060001
  0
POLYLINE
  8
PLAIN_
  6
SOLID
 62
     7
 66
     1
 10
0.000000000
 20
0.000000000
 30
0.000000000
  0
VERTEX
  8
PLAIN_
 10
379.345989764
 20
124.820504368
 30
0.000000000
  0
VERTEX
  8
PLAIN_
 10
380.999893188
 20
122.314111710
 30
0.000000000
  0
VERTEX
  8
PLAIN_
 10
382.318842519
 20
120.436327484
 30
0.000000000
  0
VERTEX
  8
PLAIN_
 10
386.342449509
 20
114.964381295
 30
0.000000000
  0
VERTEX
  8
PLAIN_
 10
387.636264102
 20
113.106818311
 30
0.000000000
  0
VERTEX
  8
PLAIN_
 10
388.262534325
 20
112.156994500
 30
0.000000000
  0
VERTEX
  8
PLAIN_
 10
388.871564461
 20
111.188773323
 30
0.000000000
  0
VERTEX
  8
PLAIN_
 10
389.460742983
 20
110.198877915
 30
0.000000000
  0
VERTEX
  8
PLAIN_
 10
390.027458363
 20
109.184031408
 30
0.000000000
  0
VERTEX
  8
PLAIN_
 10
390.569099074
 20
108.140956939
 30
0.000000000
  0
VERTEX
  8
PLAIN_
 10
391.083053589
 20
107.066377640
 30
0.000000000
  0
VERTEX
  8
PLAIN_
 10
394.086536437
 20
99.785823787
 30
0.000000000
  0
VERTEX
  8
PLAIN_
 10
394.491805734
 20
98.933966272
 30
0.000000000
  0
VERTEX
  8
PLAIN_
 10
394.919346501
 20
98.116133669
 30
0.000000000
  0
VERTEX
  8
PLAIN_
 10
395.373851251
 20
97.338652672
 30
0.000000000
  0
VERTEX
  8
PLAIN_
 10
395.860012493
 20
96.607849973
 30
0.000000000
  0
VERTEX
  8
PLAIN_
 10
396.382522741
 20
95.930052265
 30
0.000000000
  0
VERTEX
  8
PLAIN_
 10
396.946074506
 20
95.311586239
 30
0.000000000
  0
VERTEX
  8
PLAIN_
 10
397.244707367
 20
95.026579699
 30
0.000000000
  0
VERTEX
  8
PLAIN_
 10
397.555360299
 20
94.758778590
 30
0.000000000
  0
VERTEX
  8
PLAIN_
 10
397.878619866
 20
94.508973747
 30
0.000000000
  0
VERTEX
  8
PLAIN_
 10
398.215072632
 20
94.277956009
 30
0.000000000
  0
VERTEX
  8
PLAIN_
 10
398.581894149
 20
94.056831683
 30
0.000000000
  0
VERTEX
  8
PLAIN_
 10
398.963047600
 20
93.856697187
 30
0.000000000
  0
VERTEX
  8
PLAIN_
 10
399.357757756
 20
93.677078479
 30
0.000000000
  0
VERTEX
  8
PLAIN_
 10
399.765249390
 20
93.517501516
 30
0.000000000
  0
VERTEX
  8
PLAIN_
 10
400.184747276
 20
93.377492255
 30
0.000000000
  0
VERTEX
  8
PLAIN_
 10
400.615476187
 20
93.256576655
 30
0.000000000
  0
VERTEX
  8
PLAIN_
 10
401.507526171
 20
93.070130266
 30
0.000000000
  0
VERTEX
  8
PLAIN_
 10
402.435197527
 20
92.954370007
 30
0.000000000
  0
VERTEX
  8
PLAIN_
 10
403.392288436
 20
92.905503539
 30
0.000000000
  0
VERTEX
  8
PLAIN_
 10
404.372597082
 20
92.919738521
 30
0.000000000
  0
VERTEX
  8
PLAIN_
 10
405.369921647
 20
92.993282613
 30
0.000000000
  0
VERTEX
  8
PLAIN_
 10
406.378060313
 20
93.122343476
 30
0.000000000
  0
VERTEX
  8
PLAIN_
 10
407.390811264
 20
93.303128768
 30
0.000000000
  0
VERTEX
  8
PLAIN_
 10
408.401972681
 20
93.531846151
 30
0.000000000
  0
VERTEX
  8
PLAIN_
 10
409.405342749
 20
93.804703284
 30
0.000000000
  0
VERTEX
  8
PLAIN_
 10
410.394719649
 20
94.117907826
 30
0.000000000
  0
VERTEX
  8
PLAIN_
 10
411.363901563
 20
94.467667438
 30
0.000000000
  0
VERTEX
  8
PLAIN_
 10
412.306686676
 20
94.850189779
 30
0.000000000
  0
VERTEX
  8
PLAIN_
 10
413.216873169
 20
95.261682510
 30
0.000000000
  0
VERTEX
  8
PLAIN_
 10
413.966476855
 20
95.634169741
 30
0.000000000
  0
VERTEX
  8
PLAIN_
 10
414.691316265
 20
96.023927903
 30
0.000000000
  0
VERTEX
  8
PLAIN_
 10
415.395043093
 20
96.429788479
 30
0.000000000
  0
VERTEX
  8
PLAIN_
 10
416.081309033
 20
96.850582949
 30
0.000000000
  0
VERTEX
  8
PLAIN_
 10
417.416065026
 20
97.732299504
 30
0.000000000
  0
VERTEX
  8
PLAIN_
 10
418.724797796
 20
98.659729421
 30
0.000000000
  0
VERTEX
  8
PLAIN_
 10
421.381047878
 20
100.614336767
 30
0.000000000
  0
VERTEX
  8
PLAIN_
 10
422.786992295
 20
101.622817905
 30
0.000000000
  0
VERTEX
  8
PLAIN_
 10
424.283767700
 20
102.639619827
 30
0.000000000
  0
VERTEX
  8
PLAIN_
 10
425.624983451
 20
103.493614260
 30
0.000000000
  0
VERTEX
  8
PLAIN_
 10
427.028878778
 20
104.347171825
 30
0.000000000
  0
VERTEX
  8
PLAIN_
 10
432.833481787
 20
107.762771038
 30
0.000000000
  0
VERTEX
  8
PLAIN_
 10
434.222444453
 20
108.618447488
 30
0.000000000
  0
VERTEX
  8
PLAIN_
 10
435.542754478
 20
109.475408360
 30
0.000000000
  0
VERTEX
  8
PLAIN_
 10
436.772523161
 20
110.333940536
 30
0.000000000
  0
VERTEX
  8
PLAIN_
 10
437.889861799
 20
111.194330897
 30
0.000000000
  0
VERTEX
  8
PLAIN_
 10
438.399529631
 20
111.625312548
 30
0.000000000
  0
VERTEX
  8
PLAIN_
 10
438.872881689
 20
112.056866326
 30
0.000000000
  0
VERTEX
  8
PLAIN_
 10
439.307181884
 20
112.489028090
 30
0.000000000
  0
VERTEX
  8
PLAIN_
 10
439.699694129
 20
112.921833703
 30
0.000000000
  0
VERTEX
  8
PLAIN_
 10
440.047682336
 20
113.355319022
 30
0.000000000
  0
VERTEX
  8
PLAIN_
 10
440.348410416
 20
113.789519910
 30
0.000000000
  0
VERTEX
  8
PLAIN_
 10
440.599142283
 20
114.224472225
 30
0.000000000
  0
VERTEX
  8
PLAIN_
 10
440.797141848
 20
114.660211829
 30
0.000000000
  0
VERTEX
  8
PLAIN_
 10
440.939673024
 20
115.096774581
 30
0.000000000
  0
VERTEX
  8
PLAIN_
 10
441.023999723
 20
115.534196342
 30
0.000000000
  0
VERTEX
  8
PLAIN_
 10
441.047385856
 20
115.972512972
 30
0.000000000
  0
VERTEX
  8
PLAIN_
 10
441.007095337
 20
116.411760330
 30
0.000000000
  0
VERTEX
  8
PLAIN_
 10
440.927318791
 20
116.765364849
 30
0.000000000
  0
VERTEX
  8
PLAIN_
 10
440.806697551
 20
117.119716370
 30
0.000000000
  0
VERTEX
  8
PLAIN_
 10
440.647252462
 20
117.474938020
 30
0.000000000
  0
VERTEX
  8
PLAIN_
 10
440.451004370
 20
117.831152924
 30
0.000000000
  0
VERTEX
  8
PLAIN_
 10
440.219974122
 20
118.188484209
 30
0.000000000
  0
VERTEX
  8
PLAIN_
 10
439.956182563
 20
118.547054999
 30
0.000000000
  0
VERTEX
  8
PLAIN_
 10
439.661650540
 20
118.906988422
 30
0.000000000
  0
VERTEX
  8
PLAIN_
 10
439.338398899
 20
119.268407602
 30
0.000000000
  0
VERTEX
  8
PLAIN_
 10
438.613820145
 20
119.996195740
 30
0.000000000
  0
VERTEX
  8
PLAIN_
 10
437.798613070
 20
120.731404420
 30
0.000000000
  0
VERTEX
  8
PLAIN_
 10
436.908944442
 20
121.475018648
 30
0.000000000
  0
VERTEX
  8
PLAIN_
 10
435.960981030
 20
122.228023432
 30
0.000000000
  0
VERTEX
  8
PLAIN_
 10
431.909514907
 20
125.353648260
 30
0.000000000
  0
VERTEX
  8
PLAIN_
 10
430.912579099
 20
126.168380924
 30
0.000000000
  0
VERTEX
  8
PLAIN_
 10
429.954349118
 20
126.998414185
 30
0.000000000
  0
VERTEX
  8
PLAIN_
 10
429.050991731
 20
127.844733050
 30
0.000000000
  0
VERTEX
  8
PLAIN_
 10
428.218673706
 20
128.708322525
 30
0.000000000
  0
VERTEX
  8
PLAIN_
 10
427.428138268
 20
129.634202779
 30
0.000000000
  0
VERTEX
  8
PLAIN_
 10
425.989376496
 20
131.492265957
 30
0.000000000
  0
VERTEX
  8
PLAIN_
 10
425.267501831
 20
132.397287369
 30
0.000000000
  0
VERTEX
  8
PLAIN_
 10
424.772493437
 20
132.972467101
 30
0.000000000
  0
VERTEX
  8
PLAIN_
 10
424.258598872
 20
133.535119960
 30
0.000000000
  0
VERTEX
  8
PLAIN_
 10
423.185428868
 20
134.631086948
 30
0.000000000
  0
VERTEX
  8
PLAIN_
 10
419.805869438
 20
137.832632113
 30
0.000000000
  0
VERTEX
  8
PLAIN_
 10
418.701184103
 20
138.925974507
 30
0.000000000
  0
VERTEX
  8
PLAIN_
 10
417.645008146
 20
140.059870207
 30
0.000000000
  0
VERTEX
  8
PLAIN_
 10
417.142159710
 20
140.647176728
 30
0.000000000
  0
VERTEX
  8
PLAIN_
 10
416.659896851
 20
141.250802994
 30
0.000000000
  0
VERTEX
  8
PLAIN_
 10
416.012468403
 20
142.141864368
 30
0.000000000
  0
VERTEX
  8
PLAIN_
 10
415.413348703
 20
143.067127440
 30
0.000000000
  0
VERTEX
  8
PLAIN_
 10
414.863304286
 20
144.023458436
 30
0.000000000
  0
VERTEX
  8
PLAIN_
 10
414.363101685
 20
145.007723581
 30
0.000000000
  0
VERTEX
  8
PLAIN_
 10
413.913507436
 20
146.016789101
 30
0.000000000
  0
VERTEX
  8
PLAIN_
 10
413.515288071
 20
147.047521223
 30
0.000000000
  0
VERTEX
  8
PLAIN_
 10
413.169210127
 20
148.096786173
 30
0.000000000
  0
VERTEX
  8
PLAIN_
 10
412.876040137
 20
149.161450175
 30
0.000000000
  0
SEQEND
  0
LINE
  8
PLAIN_
  6
SOLID
 62
     7
 10
605.453045056
 20
103.379512493
 30
0.000000000
 11
608.093878210
 21
115.803655666
 31
0.000000000
  0
LINE
  8
PLAIN_
  6
SOLID
 62
     7
 10
608.093878210
 20
115.803655666
 30
0.000000000
 11
620.173918396
 21
119.728698653
 31
0.000000000
  0
LINE
  8
PLAIN_
  6
SOLID
 62
     7
 10
620.173918396
 20
119.728698653
 30
0.000000000
 11
629.613125426
 21
111.229598468
 31
0.000000000
  0
LINE
  8
PLAIN_
  6
SOLID
 62
     7
 10
629.613125426
 20
111.229598468
 30
0.000000000
 11
626.972292272
 21
98.805455295
 31
0.000000000
  0
LINE
  8
PLAIN_
  6
SOLID
 62
     7
 10
626.972292272
 20
98.805455295
 30
0.000000000
 11
614.892252087
 21
94.880412307
 31
0.000000000
  0
LINE
  8
PLAIN_
  6
SOLID
 62
     7
 10
614.892252087
 20
94.880412307
 30
0.000000000
 11
605.453045056
 21
103.379512493
 31
0.000000000
  0
CIRCLE
  8
PLAIN_
  6
SOLID
 62
     7
 10
617.533085241
 20
107.304555480
 30
0.000000000
 40
11.000000000
  0
LINE
  8
PLAIN_
  6
SOLID
 62
     7
 10
548.200397717
 20
151.291854914
 30
0.000000000
 11
556.699497903
 21
160.731061945
 31
0.000000000
  0
LINE
  8
PLAIN_
  6
SOLID
 62
     7
 10
556.699497903
 20
160.731061945
 30
0.000000000
 11
569.123641076
 21
158.090228791
 31
0.000000000
  0
LINE
  8
PLAIN_
  6
SOLID
 62
     7
 10
569.123641076
 20
158.090228791
 30
0.000000000
 11
573.048684063
 21
146.010188605
 31
0.000000000
  0
LINE
  8
PLAIN_
  6
SOLID
 62
     7
 10
-57.000000000
 20
-87.499998093
 30
0.000000000
 11
-64.999984741
 21
-87.499998093
 31
0.000000000
  0
LINE
  8
PLAIN_
  6
SOLID
 62
     7
 10
-66.000000000
 20
86.500001907
 30
0.000000000
 11
-66.000000000
 21
-52.499998093
 31
0.000000000
  0
LINE
  8
PLAIN_
  6
SOLID
 62
     7
 10
573.048684063
 20
146.010188605
 30
0.000000000
 11
564.549583878
 21
136.570981575
 31
0.000000000
  0
LINE
  8
PLAIN_
  6
SOLID
 62
     7
 10
-65.000000000
 20
87.500001907
 30
0.000000000
 11
-65.999999966
 21
86.500001942
 31
0.000000000
  0
LINE
  8
PLAIN_
  6
SOLID
 62
     7
 10
564.549583878
 20
136.570981575
 30
0.000000000
 11
552.125440705
 21
139.211814729
 31
0.000000000
  0
LINE
  8
PLAIN_
  6
SOLID
 62
     7
 10
552.125440705
 20
139.211814729
 30
0.000000000
 11
548.200397717
 21
151.291854914
 31
0.000000000
  0
CIRCLE
  8
PLAIN_
  6
SOLID
 62
     7
 10
560.624540890
 20
148.651021760
 30
0.000000000
 40
11.000000000
  0
LINE
  8
PLAIN_
  6
SOLID
 62
     7
 10
628.376740916
 20
-72.570015754
 30
0.000000000
 11
641.008865564
 21
-71.242325953
 31
0.000000000
  0
LINE
  8
PLAIN_
  6
SOLID
 62
     7
 10
641.008865564
 20
-71.242325953
 30
0.000000000
 11
648.474740984
 21
-81.518221902
 31
0.000000000
  0
LINE
  8
PLAIN_
  6
SOLID
 62
     7
 10
-57.000000000
 20
87.500001907
 30
0.000000000
 11
-64.999984741
 21
87.500001907
 31
0.000000000
  0
LINE
  8
PLAIN_
  6
SOLID
 62
     7
 10
648.474740984
 20
-81.518221902
 30
0.000000000
 11
643.308491756
 21
-93.121807651
 31
0.000000000
  0
LINE
  8
PLAIN_
  6
SOLID
 62
     7
 10
643.308491756
 20
-93.121807651
 30
0.000000000
 11
630.676367108
 21
-94.449497452
 31
0.000000000
  0
LINE
  8
PLAIN_
  6
SOLID
 62
     7
 10
630.676367108
 20
-94.449497452
 30
0.000000000
 11
623.210491688
 21
-84.173601504
 31
0.000000000
  0
LINE
  8
PLAIN_
  6
SOLID
 62
     7
 10
623.210491688
 20
-84.173601504
 30
0.000000000
 11
628.376740916
 21
-72.570015754
 31
0.000000000
  0
CIRCLE
  8
PLAIN_
  6
SOLID
 62
     7
 10
635.842616336
 20
-82.845911703
 30
0.000000000
 40
11.000000000
  0
LINE
  8
PLAIN_
  6
SOLID
 62
     7
 10
656.252045386
 20
-3.313784379
 30
0.000000000
 11
667.855631136
 21
-8.480033607
 31
0.000000000
  0
LINE
  8
PLAIN_
  6
SOLID
 62
     7
 10
667.855631136
 20
-8.480033607
 30
0.000000000
 11
669.183320937
 21
-21.112158255
 31
0.000000000
  0
LINE
  8
PLAIN_
  6
SOLID
 62
     7
 10
-66.000000000
 20
-86.499998093
 30
0.000000000
 11
-65.000000034
 21
-87.499998058
 31
0.000000000
  0
ARC
  8
PLAIN_
  6
SOLID
 62
     7
 10
-18.894516550
 20
-190.348083606
 30
0.000000000
 40
3.000000000
 50
45.000000000
 51
87.000000000
  0
LINE
  8
PLAIN_
  6
SOLID
 62
     7
 10
669.183320937
 20
-21.112158255
 30
0.000000000
 11
658.907424988
 21
-28.578033675
 31
0.000000000
  0
LINE
  8
PLAIN_
  6
SOLID
 62
     7
 10
658.907424988
 20
-28.578033675
 30
0.000000000
 11
647.303839239
 21
-23.411784447
 31
0.000000000
  0
LINE
  8
PLAIN_
  6
SOLID
 62
     7
 10
647.303839239
 20
-23.411784447
 30
0.000000000
 11
645.976149438
 21
-10.779659799
 31
0.000000000
  0
LINE
  8
PLAIN_
  6
SOLID
 62
     7
 10
645.976149438
 20
-10.779659799
 30
0.000000000
 11
656.252045386
 21
-3.313784379
 31
0.000000000
  0
CIRCLE
  8
PLAIN_
  6
SOLID
 62
     7
 10
657.579735187
 20
-15.945909027
 30
0.000000000
 40
11.000000000
  0
LINE
  8
PLAIN_
  6
SOLID
 62
     7
 10
468.122607132
 20
-148.743140460
 30
0.000000000
 11
473.288856360
 21
-160.346726210
 31
0.000000000
  0
LINE
  8
PLAIN_
  6
SOLID
 62
     7
 10
473.288856360
 20
-160.346726210
 30
0.000000000
 11
465.822980940
 21
-170.622622159
 31
0.000000000
  0
LINE
  8
PLAIN_
  6
SOLID
 62
     7
 10
465.822980940
 20
-170.622622159
 30
0.000000000
 11
453.190856292
 21
-169.294932358
 31
0.000000000
  0
LINE
  8
PLAIN_
  6
SOLID
 62
     7
 10
453.190856292
 20
-169.294932358
 30
0.000000000
 11
448.024607064
 21
-157.691346608
 31
0.000000000
  0
LINE
  8
PLAIN_
  6
SOLID
 62
     7
 10
-24.999996185
 20
-114.628758673
 30
0.000000000
 11
-24.999996185
 21
-184.177098239
 31
0.000000000
  0
LINE
  8
PLAIN_
  6
SOLID
 62
     7
 10
448.024607064
 20
-157.691346608
 30
0.000000000
 11
455.490482484
 21
-147.415450660
 31
0.000000000
  0
LINE
  8
PLAIN_
  6
SOLID
 62
     7
 10
455.490482484
 20
-147.415450660
 30
0.000000000
 11
468.122607132
 21
-148.743140460
 31
0.000000000
  0
CIRCLE
  8
PLAIN_
  6
SOLID
 62
     7
 10
460.656731712
 20
-159.019036409
 30
0.000000000
 40
11.000000000
  0
LINE
  8
PLAIN_
  6
SOLID
 62
     7
 10
542.603140080
 20
-153.852777959
 30
0.000000000
 11
541.275450279
 21
-166.484902608
 31
0.000000000
  0
LINE
  8
PLAIN_
  6
SOLID
 62
     7
 10
-18.737508681
 20
-187.352195002
 30
0.000000000
 11
-22.157004054
 21
-187.172986843
 31
0.000000000
  0
LINE
  8
PLAIN_
  6
SOLID
 62
     7
 10
541.275450279
 20
-166.484902608
 30
0.000000000
 11
529.671864530
 21
-171.651151836
 31
0.000000000
  0
LINE
  8
PLAIN_
  6
SOLID
 62
     7
 10
529.671864530
 20
-171.651151836
 30
0.000000000
 11
519.395968581
 21
-164.185276416
 31
0.000000000
  0
LINE
  8
PLAIN_
  6
SOLID
 62
     7
 10
519.395968581
 20
-164.185276416
 30
0.000000000
 11
520.723658382
 21
-151.553151767
 31
0.000000000
  0
LINE
  8
PLAIN_
  6
SOLID
 62
     7
 10
520.723658382
 20
-151.553151767
 30
0.000000000
 11
532.327244132
 21
-146.386902539
 31
0.000000000
  0
LINE
  8
PLAIN_
  6
SOLID
 62
     7
 10
532.327244132
 20
-146.386902539
 30
0.000000000
 11
542.603140080
 21
-153.852777959
 31
0.000000000
  0
CIRCLE
  8
PLAIN_
  6
SOLID
 62
     7
 10
530.999554331
 20
-159.019027188
 30
0.000000000
 40
11.000000000
  0
LINE
  8
PLAIN_
  6
SOLID
 62
     7
 10
346.156409756
 20
-19.871192311
 30
0.000000000
 11
336.717202725
 21
-28.370292496
 31
0.000000000
  0
LINE
  8
PLAIN_
  6
SOLID
 62
     7
 10
336.717202725
 20
-28.370292496
 30
0.000000000
 11
324.637162540
 21
-24.445249509
 31
0.000000000
  0
LINE
  8
PLAIN_
  6
SOLID
 62
     7
 10
324.637162540
 20
-24.445249509
 30
0.000000000
 11
321.996329385
 21
-12.021106336
 31
0.000000000
  0
LINE
  8
PLAIN_
  6
SOLID
 62
     7
 10
321.996329385
 20
-12.021106336
 30
0.000000000
 11
331.435536416
 21
-3.522006150
 31
0.000000000
  0
LINE
  8
PLAIN_
  6
SOLID
 62
     7
 10
431.031288082
 20
135.949176548
 30
0.000000000
 11
420.031288082
 21
142.300029509
 31
0.000000000
  0
LINE
  8
PLAIN_
  6
SOLID
 62
     7
 10
420.031288082
 20
142.300029509
 30
0.000000000
 11
420.031288082
 21
155.001735431
 31
0.000000000
  0
LINE
  8
PLAIN_
  6
SOLID
 62
     7
 10
420.031288082
 20
155.001735431
 30
0.000000000
 11
431.031288082
 21
161.352588392
 31
0.000000000
  0
LINE
  8
PLAIN_
  6
CENTER
 62
     7
 10
676.314172074
 20
-59.014517983
 30
0.000000000
 11
610.305527010
 21
-37.567009080
 31
0.000000000
  0
LINE
  8
PLAIN_
  6
SOLID
 62
     7
 10
431.031288082
 20
161.352588392
 30
0.000000000
 11
442.031288082
 21
155.001735431
 31
0.000000000
  0
LINE
  8
PLAIN_
  6
SOLID
 62
     7
 10
442.031288082
 20
155.001735431
 30
0.000000000
 11
442.031288082
 21
142.300029509
 31
0.000000000
  0
LINE
  8
PLAIN_
  6
SOLID
 62
     7
 10
442.031288082
 20
142.300029509
 30
0.000000000
 11
431.031288082
 21
135.949176548
 31
0.000000000
  0
LINE
  8
PLAIN_
  6
SOLID
 62
     7
 10
-16.773196206
 20
-188.226763263
 30
0.000000000
 11
-14.999960899
 21
-189.999998569
 31
0.000000000
  0
CIRCLE
  8
PLAIN_
  6
SOLID
 62
     7
 10
431.031288082
 20
148.650882470
 30
0.000000000
 40
11.000000000
  0
LINE
  8
PLAIN_
  6
SOLID
 62
     7
 10
367.771901611
 20
118.304401270
 30
0.000000000
 11
380.473607533
 21
118.304401270
 31
0.000000000
  0
LINE
  8
PLAIN_
  6
SOLID
 62
     7
 10
380.473607533
 20
118.304401270
 30
0.000000000
 11
386.824460494
 21
107.304401270
 31
0.000000000
  0
LINE
  8
PLAIN_
  6
SOLID
 62
     7
 10
-14.999960899
 20
-190.000003338
 30
0.000000000
 11
-1.000057220
 21
-190.000003338
 31
0.000000000
  0
LINE
  8
PLAIN_
  6
SOLID
 62
     7
 10
-1.000057220
 20
-190.000003338
 30
0.000000000
 11
0.000003815
 21
-188.999942303
 31
0.000000000
  0
LINE
  8
PLAIN_
  6
SOLID
 62
     7
 10
386.824460494
 20
107.304401270
 30
0.000000000
 11
380.473607533
 21
96.304401270
 31
0.000000000
  0
ARC
  8
PLAIN_
  6
SOLID
 62
     7
 10
-21.999996185
 20
-184.177098239
 30
0.000000000
 40
3.000000000
 50
180.000000000
 51
267.000000000
  0
CIRCLE
  8
PLAIN_
  6
SOLID
 62
     7
 10
464.969339122
 20
42.102357616
 30
0.000000000
 40
11.000000000
  0
LINE
  8
PLAIN_
  6
SOLID
 62
     7
 10
-14.999960899
 20
190.000001431
 30
0.000000000
 11
-1.000057220
 21
190.000001431
 31
0.000000000
  0
ARC
  8
PLAIN_
  6
SOLID
 62
     7
 10
495.828079224
 20
-0.371030807
 30
0.000000000
 40
65.000000000
 50
336.785309480
 51
203.214690520
  0
LINE
  8
PLAIN_
  6
SOLID
 62
     7
 10
550.716625214
 20
-13.731848717
 30
0.000000000
 11
550.716625214
 21
-19.456976891
 31
0.000000000
  0
LINE
  8
PLAIN_
  6
SOLID
 62
     7
 10
545.758510590
 20
-10.869277000
 30
0.000000000
 11
550.716609973
 21
-13.731833521
 31
0.000000000
  0
ARC
  8
PLAIN_
  6
SOLID
 62
     7
 10
445.897601602
 20
-16.594404853
 30
0.000000000
 40
11.000000000
 50
26.849542837
 51
279.150009871
  0
LINE
  8
PLAIN_
  6
SOLID
 62
     7
 10
540.800411224
 20
-13.731848717
 30
0.000000000
 11
545.758495074
 21
-10.869277142
 31
0.000000000
  0
LINE
  8
PLAIN_
  6
SOLID
 62
     7
 10
540.800411224
 20
-19.456976891
 30
0.000000000
 11
540.800395966
 21
-13.731848717
 31
0.000000000
  0
LINE
  8
PLAIN_
  6
SOLID
 62
     7
 10
508.328079224
 20
-52.871032715
 30
0.000000000
 11
508.328079224
 21
-67.371031070
 31
0.000000000
  0
CIRCLE
  8
PLAIN_
  6
SOLID
 62
     7
 10
495.828079224
 20
-0.371030807
 30
0.000000000
 40
22.000000000
  0
LINE
  8
PLAIN_
  6
SOLID
 62
     7
 10
478.258098602
 20
12.868898392
 30
0.000000000
 11
460.907495213
 21
-10.156130652
 31
0.000000000
  0
LINE
  8
PLAIN_
  6
SOLID
 62
     7
 10
513.398059845
 20
-13.610960007
 30
0.000000000
 11
494.819686703
 21
-38.265294589
 31
0.000000000
  0
LINE
  8
PLAIN_
  6
SOLID
 62
     7
 10
545.758525848
 20
-22.319548607
 30
0.000000000
 11
540.800411366
 21
-19.456976989
 31
0.000000000
  0
LINE
  8
PLAIN_
  6
CENTER
 62
     7
 10
607.374618387
 20
153.159611460
 30
0.000000000
 11
555.344819892
 21
81.546737485
 31
0.000000000
  0
ARC
  8
PLAIN_
  6
SOLID
 62
     7
 10
486.833332062
 20
-32.247144699
 30
0.000000000
 40
10.000000000
 50
293.563581405
 51
322.999978935
  0
LINE
  8
PLAIN_
  6
SOLID
 62
     7
 10
-56.999996185
 20
-0.000000477
 30
0.000000000
 11
-56.999996185
 21
-110.104816035
 31
0.000000000
  0
LINE
  8
PLAIN_
  6
SOLID
 62
     7
 10
434.390849471
 20
-66.371031157
 30
0.000000000
 11
434.390849471
 21
-48.482735520
 31
0.000000000
  0
LINE
  8
PLAIN_
  6
SOLID
 62
     7
 10
555.265309151
 20
-68.371030807
 30
0.000000000
 11
495.828079224
 21
-68.371030807
 31
0.000000000
  0
LINE
  8
PLAIN_
  6
CENTER
 62
     7
 10
461.328079224
 20
-39.484846115
 30
0.000000000
 11
461.328079224
 21
-75.121030807
 31
0.000000000
  0
ARC
  8
PLAIN_
  6
L_DASH
 62
     7
 10
495.828077869
 20
-0.371011394
 30
0.000000000
 40
171.000000000
 50
345.352532504
 51
50.647455339
  0
LINE
  8
PLAIN_
  6
CENTER
 62
     7
 10
530.328079224
 20
-39.943746567
 30
0.000000000
 11
530.328079224
 21
-75.121030807
 31
0.000000000
  0
LINE
  8
PLAIN_
  6
SOLID
 62
     7
 10
436.390849297
 20
-68.371030807
 30
0.000000000
 11
434.390849471
 21
-66.371031157
 31
0.000000000
  0
ARC
  8
PLAIN_
  6
SOLID
 62
     7
 10
426.090849519
 20
-23.572399357
 30
0.000000000
 40
10.000000000
 50
360.000000000
 51
19.407516273
  0
LINE
  8
PLAIN_
  6
SOLID
 62
     7
 10
550.716625214
 20
-19.456969261
 30
0.000000000
 11
545.758525815
 21
-22.319548737
 31
0.000000000
  0
ARC
  8
PLAIN_
  6
SOLID
 62
     7
 10
454.390849471
 20
-48.482735520
 30
0.000000000
 40
20.000000000
 50
104.914077237
 51
180.000000000
  0
ARC
  8
PLAIN_
  6
SOLID
 62
     7
 10
468.893780708
 20
-16.174283981
 30
0.000000000
 40
10.000000000
 50
142.999745115
 51
181.046507924
  0
ARC
  8
PLAIN_
  6
SOLID
 62
     7
 10
447.964874268
 20
-29.428922653
 30
0.000000000
 40
2.000000000
 50
17.999852058
 51
99.150012606
  0
ARC
  8
PLAIN_
  6
SOLID
 62
     7
 10
445.897617340
 20
-16.594354630
 30
0.000000000
 40
13.000000000
 50
284.914077237
 51
1.046512933
  0
ARC
  8
PLAIN_
  6
SOLID
 62
     7
 10
457.496153831
 20
-10.722921371
 30
0.000000000
 40
2.000000000
 50
206.849514608
 51
288.000064477
  0
LINE
  8
PLAIN_
  6
SOLID
 62
     7
 10
483.989975618
 20
21.026619878
 30
0.000000000
 11
474.831379441
 21
33.632335343
 31
0.000000000
  0
LINE
  8
PLAIN_
  6
SOLID
 62
     7
 10
479.135870560
 20
17.499911266
 30
0.000000000
 11
469.977253154
 21
30.105653745
 31
0.000000000
  0
LINE
  8
PLAIN_
  6
SOLID
 62
     7
 10
507.666175429
 20
21.026620808
 30
0.000000000
 11
516.824776056
 21
33.632361333
 31
0.000000000
  0
LINE
  8
PLAIN_
  6
SOLID
 62
     7
 10
512.520277124
 20
17.499907567
 30
0.000000000
 11
521.678893374
 21
30.105667389
 31
0.000000000
  0
ARC
  8
PLAIN_
  6
SOLID
 62
     7
 10
543.691261292
 20
-29.428991318
 30
0.000000000
 40
2.000000000
 50
80.849791140
 51
162.000149763
  0
LINE
  8
PLAIN_
  6
SOLID
 62
     7
 10
511.384429932
 20
15.185317993
 30
0.000000000
 11
530.515452273
 21
-3.945704348
 31
0.000000000
  0
ARC
  8
PLAIN_
  6
SOLID
 62
     7
 10
467.550219774
 20
28.342307091
 30
0.000000000
 40
3.000000000
 50
35.999176370
 51
100.623168297
  0
ARC
  8
PLAIN_
  6
SOLID
 62
     7
 10
477.258431435
 20
35.395690918
 30
0.000000000
 40
3.000000000
 50
151.376900415
 51
216.000024907
  0
ARC
  8
PLAIN_
  6
SOLID
 62
     7
 10
486.417026520
 20
22.789976120
 30
0.000000000
 40
3.000000000
 50
216.000031738
 51
292.113433207
  0
ARC
  8
PLAIN_
  6
SOLID
 62
     7
 10
476.708822250
 20
15.736553192
 30
0.000000000
 40
3.000000000
 50
319.886563561
 51
36.000087973
  0
ARC
  8
PLAIN_
  6
SOLID
 62
     7
 10
514.397724152
 20
35.395719528
 30
0.000000000
 40
3.000000000
 50
324.000004007
 51
28.623114839
  0
ARC
  8
PLAIN_
  6
SOLID
 62
     7
 10
524.105945587
 20
28.342313766
 30
0.000000000
 40
3.000000000
 50
79.377038430
 51
144.000012659
  0
LINE
  8
PLAIN_
  6
SOLID
 62
     7
 10
-16.851582992
 20
188.148379338
 30
0.000000000
 11
-14.999960899
 21
190.000001431
 31
0.000000000
  0
ARC
  8
PLAIN_
  6
SOLID
 62
     7
 10
514.947326660
 20
15.736555099
 30
0.000000000
 40
3.000000000
 50
143.999978508
 51
220.113455109
  0
ARC
  8
PLAIN_
  6
SOLID
 62
     7
 10
505.239120483
 20
22.789978027
 30
0.000000000
 40
3.000000000
 50
247.886541067
 51
324.000051818
  0
ARC
  8
PLAIN_
  6
SOLID
 62
     7
 10
523.444381714
 20
-11.016771317
 30
0.000000000
 40
10.000000000
 50
345.965933359
 51
45.000064318
  0
ARC
  8
PLAIN_
  6
SOLID
 62
     7
 10
426.090849519
 20
-38.527334840
 30
0.000000000
 40
10.000000000
 50
340.619099598
 51
360.000000000
  0
ARC
  8
PLAIN_
  6
SOLID
 62
     7
 10
545.758544922
 20
-16.594415665
 30
0.000000000
 40
13.000000000
 50
165.965917251
 51
255.085889089
  0
ARC
  8
PLAIN_
  6
SOLID
 62
     7
 10
534.160041809
 20
-10.722906113
 30
0.000000000
 40
2.000000000
 50
251.999831249
 51
333.150107910
  0
LINE
  8
PLAIN_
  6
SOLID
 62
     7
 10
495.828079224
 20
-68.371030807
 30
0.000000000
 11
436.390849297
 21
-68.371030807
 31
0.000000000
  0
LINE
  8
PLAIN_
  6
SOLID
 62
     7
 10
557.265308976
 20
-66.371031157
 30
0.000000000
 11
557.265308976
 21
-48.482735520
 31
0.000000000
  0
ARC
  8
PLAIN_
  6
SOLID
 62
     7
 10
495.828079224
 20
-0.371030807
 30
0.000000000
 40
50.000000000
 50
74.127651920
 51
105.872458729
  0
ARC
  8
PLAIN_
  6
SOLID
 62
     7
 10
495.828079224
 20
-0.371030807
 30
0.000000000
 40
50.000000000
 50
2.127608935
 51
18.000026000
  0
ARC
  8
PLAIN_
  6
SOLID
 62
     7
 10
545.644912720
 20
33.069704056
 30
0.000000000
 40
10.000000000
 50
154.524371113
 51
213.872431226
  0
ARC
  8
PLAIN_
  6
SOLID
 62
     7
 10
555.786712646
 20
1.856477737
 30
0.000000000
 40
10.000000000
 50
182.127596029
 51
241.475656142
  0
ARC
  8
PLAIN_
  6
SOLID
 62
     7
 10
512.237808228
 20
57.341365814
 30
0.000000000
 40
10.000000000
 50
254.127482987
 51
313.475645553
  0
ARC
  8
PLAIN_
  6
L_DASH
 62
     7
 10
356.022749560
 20
-45.796508884
 30
0.000000000
 40
10.000000000
 50
288.000001409
 51
18.000015187
  0
CIRCLE
  8
PLAIN_
  6
SOLID
 62
     7
 10
545.758510590
 20
-16.594412804
 30
0.000000000
 40
9.000000000
  0
LINE
  8
PLAIN_
  6
L_DASH
 62
     7
 10
359.112918168
 20
-55.307069087
 30
0.000000000
 11
336.565915450
 21
-62.633034361
 31
0.000000000
  0
LINE
  8
PLAIN_
  6
L_DASH
 62
     7
 10
505.828067094
 20
-147.371054568
 30
0.000000000
 11
505.828067094
 21
-171.078376196
 31
0.000000000
  0
ARC
  8
PLAIN_
  6
L_DASH
 62
     7
 10
495.828095509
 20
-0.371021708
 30
0.000000000
 40
171.000000000
 50
273.352530509
 51
338.647453343
  0
LINE
  8
PLAIN_
  6
SOLID
 62
     7
 10
495.828078445
 20
60.628967894
 30
0.000000000
 11
500.220378672
 21
53.308467516
 31
0.000000000
  0
LINE
  8
PLAIN_
  6
SOLID
 62
     7
 10
500.220378826
 20
53.308467260
 30
0.000000000
 11
491.435778064
 21
53.308467260
 31
0.000000000
  0
LINE
  8
PLAIN_
  6
SOLID
 62
     7
 10
509.328079049
 20
-68.371030807
 30
0.000000000
 11
508.328079224
 21
-67.371031070
 31
0.000000000
  0
LINE
  8
PLAIN_
  6
SOLID
 62
     7
 10
491.435778064
 20
53.308467260
 30
0.000000000
 11
495.828078291
 21
60.628967638
 31
0.000000000
  0
ARC
  8
PLAIN_
  6
SOLID
 62
     7
 10
479.418315887
 20
57.341354370
 30
0.000000000
 40
10.000000000
 50
226.524304815
 51
285.872173683
  0
ARC
  8
PLAIN_
  6
SOLID
 62
     7
 10
444.725832052
 20
36.516472084
 30
0.000000000
 40
10.000000000
 50
346.067757811
 51
15.425959921
  0
LINE
  8
PLAIN_
  6
CENTER
 62
     7
 10
327.618098027
 20
-55.025763994
 30
0.000000000
 11
394.175861102
 21
-33.399835834
 31
0.000000000
  0
LINE
  8
PLAIN_
  6
SOLID
 62
     7
 10
454.431632996
 20
34.108728409
 30
0.000000000
 11
455.406646759
 21
33.791929244
 31
0.000000000
  0
LINE
  8
PLAIN_
  6
SOLID
 62
     7
 10
455.406646729
 20
33.791929245
 30
0.000000000
 11
443.045967636
 21
-4.250331629
 31
0.000000000
  0
LINE
  8
PLAIN_
  6
SOLID
 62
     7
 10
482.328079398
 20
-68.371030807
 30
0.000000000
 11
483.328079224
 21
-67.371031070
 31
0.000000000
  0
LINE
  8
PLAIN_
  6
SOLID
 62
     7
 10
442.070960999
 20
-3.933534622
 30
0.000000000
 11
443.045967112
 21
-4.250333800
 31
0.000000000
  0
ARC
  8
PLAIN_
  6
SOLID
 62
     7
 10
432.803536287
 20
-0.176585664
 30
0.000000000
 40
10.000000000
 50
308.574151532
 51
341.999984010
  0
LINE
  8
PLAIN_
  6
L_DASH
 62
     7
 10
444.703077316
 20
-45.371026993
 30
0.000000000
 11
444.703077316
 21
-68.371030807
 31
0.000000000
  0
LINE
  8
PLAIN_
  6
L_DASH
 62
     7
 10
477.953081131
 20
-45.371027946
 30
0.000000000
 11
477.953081131
 21
-68.371027946
 31
0.000000000
  0
LINE
  8
PLAIN_
  6
SOLID
 62
     7
 10
531.644880295
 20
44.964959145
 30
0.000000000
 11
531.644880295
 21
39.239830971
 31
0.000000000
  0
LINE
  8
PLAIN_
  6
L_DASH
 62
     7
 10
444.703079224
 20
-68.371030807
 30
0.000000000
 11
446.183073058
 21
-66.891036973
 31
0.000000000
  0
LINE
  8
PLAIN_
  6
SOLID
 62
     7
 10
526.686765671
 20
47.827530861
 30
0.000000000
 11
531.644865054
 21
44.964974340
 31
0.000000000
  0
LINE
  8
PLAIN_
  6
SOLID
 62
     7
 10
521.728666306
 20
44.964959145
 30
0.000000000
 11
526.686750155
 21
47.827530720
 31
0.000000000
  0
LINE
  8
PLAIN_
  6
L_DASH
 62
     7
 10
476.473080635
 20
-46.851023674
 30
0.000000000
 11
476.473080635
 21
-66.891032219
 31
0.000000000
  0
LINE
  8
PLAIN_
  6
L_DASH
 62
     7
 10
446.183078766
 20
-46.851025581
 30
0.000000000
 11
446.183078766
 21
-66.891037941
 31
0.000000000
  0
ARC
  8
PLAIN_
  6
L_DASH
 62
     7
 10
356.022755987
 20
-45.796524112
 30
0.000000000
 40
10.000000000
 50
17.999985037
 51
107.999998815
  0
ARC
  8
PLAIN_
  6
CENTER
 62
     7
 10
495.828095328
 20
-0.371022213
 30
0.000000000
 40
155.000000000
 50
192.488043881
 51
203.184486804
  0
LINE
  8
PLAIN_
  6
L_DASH
 62
     7
 10
352.932587100
 20
-36.285962917
 30
0.000000000
 11
330.385570041
 21
-43.611932851
 31
0.000000000
  0
ARC
  8
PLAIN_
  6
SOLID
 62
     7
 10
409.423663758
 20
118.554515364
 30
0.000000000
 40
10.000000000
 50
216.000001056
 51
306.000014835
  0
LINE
  8
PLAIN_
  6
SOLID
 62
     7
 10
521.728666306
 20
39.239830971
 30
0.000000000
 11
521.728651047
 21
44.964959145
 31
0.000000000
  0
LINE
  8
PLAIN_
  6
SOLID
 62
     7
 10
526.686780930
 20
36.377259254
 30
0.000000000
 11
521.728666447
 21
39.239830872
 31
0.000000000
  0
LINE
  8
PLAIN_
  6
L_DASH
 62
     7
 10
446.183078766
 20
-66.891035080
 30
0.000000000
 11
476.473079681
 21
-66.891035080
 31
0.000000000
  0
LINE
  8
PLAIN_
  6
SOLID
 62
     7
 10
401.333497126
 20
112.676665422
 30
0.000000000
 11
387.398683102
 21
131.856291509
 31
0.000000000
  0
ARC
  8
PLAIN_
  6
SOLID
 62
     7
 10
409.423654452
 20
118.554508164
 30
0.000000000
 40
10.000000000
 50
305.999983041
 51
35.999996819
  0
LINE
  8
PLAIN_
  6
L_DASH
 62
     7
 10
485.828092793
 20
-147.371053645
 30
0.000000000
 11
485.828092793
 21
-171.078390352
 31
0.000000000
  0
LINE
  8
PLAIN_
  6
L_DASH
 62
     7
 10
476.473079681
 20
-46.851026535
 30
0.000000000
 11
477.953081044
 21
-45.371030787
 31
0.000000000
  0
LINE
  8
PLAIN_
  6
L_DASH
 62
     7
 10
476.473079681
 20
-66.891035080
 30
0.000000000
 11
477.953080101
 21
-68.371030759
 31
0.000000000
  0
LINE
  8
PLAIN_
  6
SOLID
 62
     7
 10
531.644880295
 20
39.239838600
 30
0.000000000
 11
526.686780896
 21
36.377259124
 31
0.000000000
  0
CIRCLE
  8
PLAIN_
  6
SOLID
 62
     7
 10
526.686765671
 20
42.102395058
 30
0.000000000
 40
9.000000000
  0
LINE
  8
PLAIN_
  6
SOLID
 62
     7
 10
469.927436829
 20
44.964959145
 30
0.000000000
 11
469.927436829
 21
39.239830971
 31
0.000000000
  0
LINE
  8
PLAIN_
  6
L_DASH
 62
     7
 10
446.183078766
 20
-46.851026535
 30
0.000000000
 11
444.703077404
 21
-45.371030787
 31
0.000000000
  0
LINE
  8
PLAIN_
  6
SOLID
 62
     7
 10
464.969322205
 20
47.827530861
 30
0.000000000
 11
469.927421588
 21
44.964974340
 31
0.000000000
  0
LINE
  8
PLAIN_
  6
SOLID
 62
     7
 10
460.011222839
 20
44.964959145
 30
0.000000000
 11
464.969306689
 21
47.827530720
 31
0.000000000
  0
LINE
  8
PLAIN_
  6
L_DASH
 62
     7
 10
545.473083496
 20
-66.891035080
 30
0.000000000
 11
515.183078766
 21
-66.891035080
 31
0.000000000
  0
LINE
  8
PLAIN_
  6
L_DASH
 62
     7
 10
515.183078766
 20
-66.891035080
 30
0.000000000
 11
513.703079351
 21
-68.371030752
 31
0.000000000
  0
LINE
  8
PLAIN_
  6
L_DASH
 62
     7
 10
513.703079224
 20
-45.371030807
 30
0.000000000
 11
513.703079224
 21
-68.371030807
 31
0.000000000
  0
LINE
  8
PLAIN_
  6
L_DASH
 62
     7
 10
515.183078766
 20
-46.851026535
 30
0.000000000
 11
515.183078766
 21
-66.891035080
 31
0.000000000
  0
LINE
  8
PLAIN_
  6
SOLID
 62
     7
 10
460.011222839
 20
39.239830971
 30
0.000000000
 11
460.011207581
 21
44.964959145
 31
0.000000000
  0
LINE
  8
PLAIN_
  6
SOLID
 62
     7
 10
464.969337463
 20
36.377259254
 30
0.000000000
 11
460.011222981
 21
39.239830872
 31
0.000000000
  0
LINE
  8
PLAIN_
  6
L_DASH
 62
     7
 10
515.183078766
 20
-46.851026535
 30
0.000000000
 11
513.703079351
 21
-45.371030863
 31
0.000000000
  0
LINE
  8
PLAIN_
  6
SOLID
 62
     7
 10
469.927436829
 20
39.239838600
 30
0.000000000
 11
464.969337430
 21
36.377259124
 31
0.000000000
  0
CIRCLE
  8
PLAIN_
  6
SOLID
 62
     7
 10
464.969322205
 20
42.102395058
 30
0.000000000
 40
9.000000000
  0
CIRCLE
  8
PLAIN_
  6
SOLID
 62
     7
 10
495.828044891
 20
-52.871024132
 30
0.000000000
 40
9.000000000
  0
LINE
  8
PLAIN_
  6
L_DASH
 62
     7
 10
545.473083496
 20
-46.851026535
 30
0.000000000
 11
546.953079185
 21
-45.371030846
 31
0.000000000
  0
LINE
  8
PLAIN_
  6
L_DASH
 62
     7
 10
545.473083496
 20
-46.851026535
 30
0.000000000
 11
545.473083496
 21
-66.891035080
 31
0.000000000
  0
LINE
  8
PLAIN_
  6
L_DASH
 62
     7
 10
546.953079224
 20
-45.371030807
 30
0.000000000
 11
546.953079224
 21
-68.371030807
 31
0.000000000
  0
LINE
  8
PLAIN_
  6
L_DASH
 62
     7
 10
546.953079224
 20
-68.371030807
 30
0.000000000
 11
545.473083534
 21
-66.891035118
 31
0.000000000
  0
LINE
  8
PLAIN_
  6
SOLID
 62
     7
 10
495.828060150
 20
-58.596159935
 30
0.000000000
 11
490.869945668
 21
-55.733588317
 31
0.000000000
  0
LINE
  8
PLAIN_
  6
SOLID
 62
     7
 10
490.869945526
 20
-55.733588219
 30
0.000000000
 11
490.869930267
 21
-50.008460045
 31
0.000000000
  0
LINE
  8
PLAIN_
  6
SOLID
 62
     7
 10
490.869945526
 20
-50.008460045
 30
0.000000000
 11
495.828029376
 21
-47.145888470
 31
0.000000000
  0
LINE
  8
PLAIN_
  6
SOLID
 62
     7
 10
495.828044891
 20
-47.145888329
 30
0.000000000
 11
500.786144275
 21
-50.008444849
 31
0.000000000
  0
ARC
  8
PLAIN_
  6
SOLID
 62
     7
 10
-58.999996185
 20
114.999997616
 30
0.000000000
 40
5.000000000
 50
293.578178478
 51
0.000000000
  0
ARC
  8
PLAIN_
  6
L_DASH
 62
     7
 10
495.828094752
 20
-0.371040968
 30
0.000000000
 40
171.000000000
 50
201.352528093
 51
266.647450927
  0
LINE
  8
PLAIN_
  6
SOLID
 62
     7
 10
500.786159515
 20
-50.008460045
 30
0.000000000
 11
500.786159515
 21
-55.733588219
 31
0.000000000
  0
LINE
  8
PLAIN_
  6
SOLID
 62
     7
 10
500.786159515
 20
-55.733580589
 30
0.000000000
 11
495.828060117
 21
-58.596160065
 31
0.000000000
  0
LINE
  8
PLAIN_
  6
SOLID
 62
     7
 10
483.328079224
 20
-67.371030807
 30
0.000000000
 11
483.328079224
 21
-52.871030807
 31
0.000000000
  0
ARC
  8
PLAIN_
  6
SOLID
 62
     7
 10
495.828079224
 20
-0.371030807
 30
0.000000000
 40
44.000000000
 50
216.811557249
 51
254.146696309
  0
LINE
  8
PLAIN_
  6
SOLID
 62
     7
 10
436.090849519
 20
-38.527334840
 30
0.000000000
 11
436.090849519
 21
-23.212269945
 31
0.000000000
  0
ARC
  8
PLAIN_
  6
SOLID
 62
     7
 10
426.090849519
 20
-23.572399357
 30
0.000000000
 40
10.000000000
 50
360.000000000
 51
19.407516273
  0
ARC
  8
PLAIN_
  6
SOLID
 62
     7
 10
565.565308928
 20
-23.572399357
 30
0.000000000
 40
10.000000000
 50
160.592483727
 51
180.000000000
  0
ARC
  8
PLAIN_
  6
CENTER
 62
     7
 10
495.828095658
 20
-0.371021774
 30
0.000000000
 40
155.000000000
 50
120.488041885
 51
131.184484808
  0
LINE
  8
PLAIN_
  6
SOLID
 62
     7
 10
417.513816765
 20
124.432354615
 30
0.000000000
 11
403.578993877
 21
143.611992902
 31
0.000000000
  0
ARC
  8
PLAIN_
  6
SOLID
 62
     7
 10
565.565308928
 20
-38.527334840
 30
0.000000000
 40
10.000000000
 50
180.000000000
 51
199.380900402
  0
LINE
  8
PLAIN_
  6
SOLID
 62
     7
 10
-49.261675967
 20
185.678215332
 30
0.000000000
 11
-18.815895467
 21
187.273811077
 31
0.000000000
  0
ARC
  8
PLAIN_
  6
L_DASH
 62
     7
 10
582.232566276
 20
118.554486512
 30
0.000000000
 40
10.000000000
 50
144.000000704
 51
234.000014483
  0
LINE
  8
PLAIN_
  6
CENTER
 62
     7
 10
384.281541500
 20
153.159610029
 30
0.000000000
 11
420.585069122
 21
103.192090960
 31
0.000000000
  0
LINE
  8
PLAIN_
  6
SOLID
 62
     7
 10
555.565308928
 20
-38.527334840
 30
0.000000000
 11
555.565308928
 21
-23.212269945
 31
0.000000000
  0
LINE
  8
PLAIN_
  6
L_DASH
 62
     7
 10
574.142398872
 20
124.432337424
 30
0.000000000
 11
588.077212896
 21
143.611963512
 31
0.000000000
  0
ARC
  8
PLAIN_
  6
SOLID
 62
     7
 10
537.265308976
 20
-48.482735520
 30
0.000000000
 40
20.000000000
 50
0.000000000
 51
75.085889089
  0
LINE
  8
PLAIN_
  6
SOLID
 62
     7
 10
555.265309151
 20
-68.371030807
 30
0.000000000
 11
557.265308976
 21
-66.371031157
 31
0.000000000
  0
CIRCLE
  8
PLAIN_
  6
SOLID
 62
     7
 10
495.828079224
 20
-0.371030807
 30
0.000000000
 40
19.000000000
  0
POLYLINE
  8
PLAIN_
  6
SOLID
 62
     7
 66
     1
 10
0.000000000
 20
0.000000000
 30
0.000000000
  0
VERTEX
  8
PLAIN_
 10
446.028686523
 20
41.402406693
 30
0.000000000
  0
VERTEX
  8
PLAIN_
 10
448.532812357
 20
43.844378233
 30
0.000000000
  0
VERTEX
  8
PLAIN_
 10
449.803495795
 20
45.044399209
 30
0.000000000
  0
VERTEX
  8
PLAIN_
 10
451.096523285
 20
46.219262362
 30
0.000000000
  0
VERTEX
  8
PLAIN_
 10
452.419342607
 20
47.360581718
 30
0.000000000
  0
VERTEX
  8
PLAIN_
 10
453.779401541
 20
48.459971309
 30
0.000000000
  0
VERTEX
  8
PLAIN_
 10
455.184147865
 20
49.509045161
 30
0.000000000
  0
VERTEX
  8
PLAIN_
 10
455.905606229
 20
50.012093070
 30
0.000000000
  0
VERTEX
  8
PLAIN_
 10
456.641029358
 20
50.499417305
 30
0.000000000
  0
VERTEX
  8
PLAIN_
 10
457.737279773
 20
51.172717750
 30
0.000000000
  0
VERTEX
  8
PLAIN_
 10
458.298252180
 20
51.485520922
 30
0.000000000
  0
VERTEX
  8
PLAIN_
 10
458.868342400
 20
51.776799679
 30
0.000000000
  0
VERTEX
  8
PLAIN_
 10
459.447965190
 20
52.042334236
 30
0.000000000
  0
VERTEX
  8
PLAIN_
 10
460.037535310
 20
52.277904809
 30
0.000000000
  0
VERTEX
  8
PLAIN_
 10
460.637467518
 20
52.479291610
 30
0.000000000
  0
VERTEX
  8
PLAIN_
 10
461.248176575
 20
52.642274857
 30
0.000000000
  0
VERTEX
  8
PLAIN_
 10
462.146175385
 20
52.810606122
 30
0.000000000
  0
VERTEX
  8
PLAIN_
 10
463.055801392
 20
52.934652328
 30
0.000000000
  0
SEQEND
  0
POLYLINE
  8
PLAIN_
  6
SOLID
 62
     7
 66
     1
 10
0.000000000
 20
0.000000000
 30
0.000000000
  0
VERTEX
  8
PLAIN_
 10
545.627471924
 20
41.402406693
 30
0.000000000
  0
VERTEX
  8
PLAIN_
 10
543.123346090
 20
43.844378233
 30
0.000000000
  0
VERTEX
  8
PLAIN_
 10
541.852662653
 20
45.044399209
 30
0.000000000
  0
VERTEX
  8
PLAIN_
 10
540.559635162
 20
46.219262362
 30
0.000000000
  0
VERTEX
  8
PLAIN_
 10
539.236815840
 20
47.360581718
 30
0.000000000
  0
VERTEX
  8
PLAIN_
 10
537.876756907
 20
48.459971309
 30
0.000000000
  0
VERTEX
  8
PLAIN_
 10
536.472010583
 20
49.509045161
 30
0.000000000
  0
VERTEX
  8
PLAIN_
 10
535.750552218
 20
50.012093070
 30
0.000000000
  0
VERTEX
  8
PLAIN_
 10
535.015129089
 20
50.499417305
 30
0.000000000
  0
VERTEX
  8
PLAIN_
 10
533.918878675
 20
51.172717750
 30
0.000000000
  0
VERTEX
  8
PLAIN_
 10
533.357906267
 20
51.485520922
 30
0.000000000
  0
VERTEX
  8
PLAIN_
 10
532.787816048
 20
51.776799679
 30
0.000000000
  0
VERTEX
  8
PLAIN_
 10
532.208193257
 20
52.042334236
 30
0.000000000
  0
VERTEX
  8
PLAIN_
 10
531.618623137
 20
52.277904809
 30
0.000000000
  0
VERTEX
  8
PLAIN_
 10
531.018690929
 20
52.479291610
 30
0.000000000
  0
VERTEX
  8
PLAIN_
 10
530.407981873
 20
52.642274857
 30
0.000000000
  0
VERTEX
  8
PLAIN_
 10
529.509983063
 20
52.810606122
 30
0.000000000
  0
VERTEX
  8
PLAIN_
 10
528.600357056
 20
52.934652328
 30
0.000000000
  0
SEQEND
  0
ARC
  8
PLAIN_
  6
SOLID
 62
     7
 10
495.828079224
 20
-0.371030807
 30
0.000000000
 40
50.000000000
 50
18.000026000
 51
33.872429405
  0
LINE
  8
PLAIN_
  6
SOLID
 62
     7
 10
-127.714263916
 20
33.069252014
 30
0.000000000
 11
-127.714263916
 21
51.473411560
 31
0.000000000
  0
LINE
  8
PLAIN_
  6
SOLID
 62
     7
 10
-138.000030518
 20
-61.500000000
 30
0.000000000
 11
-138.000030518
 21
-43.500000000
 31
0.000000000
  0
ARC
  8
PLAIN_
  6
SOLID
 62
     7
 10
-138.000030518
 20
-60.500000000
 30
0.000000000
 40
1.000000000
 50
180.000000000
 51
269.999982014
  0
LINE
  8
PLAIN_
  6
L_DASH
 62
     7
 10
-132.714263916
 20
-10.498397827
 30
0.000000000
 11
-129.408966050
 21
-16.223388478
 31
0.000000000
  0
ARC
  8
PLAIN_
  6
SOLID
 62
     7
 10
-138.714263916
 20
50.473411560
 30
0.000000000
 40
1.000000000
 50
90.000017986
 51
180.000000000
  0
ARC
  8
PLAIN_
  6
L_DASH
 62
     7
 10
582.232560404
 20
118.554491733
 30
0.000000000
 40
10.000000000
 50
233.999980625
 51
323.999994404
  0
ARC
  8
PLAIN_
  6
CENTER
 62
     7
 10
495.828095910
 20
-0.371021286
 30
0.000000000
 40
155.000000000
 50
48.488039470
 51
59.184482393
  0
LINE
  8
PLAIN_
  6
SOLID
 62
     7
 10
-139.714263916
 20
34.473403931
 30
0.000000000
 11
-139.714263916
 21
50.473411560
 31
0.000000000
  0
LINE
  8
PLAIN_
  6
SOLID
 62
     7
 10
-127.714263916
 20
33.473403931
 30
0.000000000
 11
-138.714263916
 21
33.473403931
 31
0.000000000
  0
ARC
  8
PLAIN_
  6
SOLID
 62
     7
 10
-138.714263916
 20
34.473403931
 30
0.000000000
 40
1.000000000
 50
180.000000000
 51
269.999982014
  0
ARC
  8
PLAIN_
  6
SOLID
 62
     7
 10
-126.714263916
 20
33.069252014
 30
0.000000000
 40
1.000000000
 50
180.000000000
 51
267.999269342
  0
LINE
  8
PLAIN_
  6
SOLID
 62
     7
 10
-127.714263916
 20
51.473411560
 30
0.000000000
 11
-138.714263916
 21
51.473411560
 31
0.000000000
  0
LINE
  8
PLAIN_
  6
SOLID
 62
     7
 10
-139.000030518
 20
-60.500000000
 30
0.000000000
 11
-139.000030518
 21
-44.500000000
 31
0.000000000
  0
ARC
  8
PLAIN_
  6
SOLID
 62
     7
 10
-138.000030518
 20
-44.500000000
 30
0.000000000
 40
1.000000000
 50
90.000017986
 51
180.000000000
  0
LINE
  8
PLAIN_
  6
L_DASH
 62
     7
 10
-132.714263916
 20
36.748413086
 30
0.000000000
 11
-129.408966050
 21
42.473403737
 31
0.000000000
  0
LINE
  8
PLAIN_
  6
SOLID
 62
     7
 10
-138.714263916
 20
33.473403931
 30
0.000000000
 11
-138.714263916
 21
51.473411560
 31
0.000000000
  0
LINE
  8
PLAIN_
  6
L_DASH
 62
     7
 10
-132.714263916
 20
39.610900879
 30
0.000000000
 11
-139.714263916
 21
39.610900879
 31
0.000000000
  0
LINE
  8
PLAIN_
  6
L_DASH
 62
     7
 10
-132.714263916
 20
36.748413086
 30
0.000000000
 11
-139.714263916
 21
36.748413086
 31
0.000000000
  0
LINE
  8
PLAIN_
  6
L_DASH
 62
     7
 10
-132.714263916
 20
36.748413086
 30
0.000000000
 11
-132.714263916
 21
48.198402405
 31
0.000000000
  0
LINE
  8
PLAIN_
  6
L_DASH
 62
     7
 10
-132.714263916
 20
48.198402405
 30
0.000000000
 11
-139.714263916
 21
48.198402405
 31
0.000000000
  0
LINE
  8
PLAIN_
  6
L_DASH
 62
     7
 10
-132.714263916
 20
45.335899353
 30
0.000000000
 11
-139.714263916
 21
45.335899353
 31
0.000000000
  0
LINE
  8
PLAIN_
  6
L_DASH
 62
     7
 10
590.322717425
 20
112.676646737
 30
0.000000000
 11
604.257540313
 21
131.856285024
 31
0.000000000
  0
LINE
  8
PLAIN_
  6
L_DASH
 62
     7
 10
-132.714263916
 20
48.198402405
 30
0.000000000
 11
-129.408966103
 21
42.473404021
 31
0.000000000
  0
ARC
  8
PLAIN_
  6
L_DASH
 62
     7
 10
635.633425428
 20
-45.796555446
 30
0.000000000
 40
10.000000000
 50
72.000000352
 51
162.000014130
  0
LINE
  8
PLAIN_
  6
SOLID
 62
     7
 10
-127.714263916
 20
-7.223388672
 30
0.000000000
 11
-138.714263916
 21
-7.223388672
 31
0.000000000
  0
LINE
  8
PLAIN_
  6
L_DASH
 62
     7
 10
-132.714263916
 20
-21.948379517
 30
0.000000000
 11
-129.408966050
 21
-16.223388866
 31
0.000000000
  0
ARC
  8
PLAIN_
  6
SOLID
 62
     7
 10
-132.816680908
 20
22.000000000
 30
0.000000000
 40
3.000000000
 50
269.999982014
 51
301.002692185
  0
LINE
  8
PLAIN_
  6
SOLID
 62
     7
 10
-123.000030518
 20
26.956481934
 30
0.000000000
 11
-123.000030518
 21
31.938941956
 31
0.000000000
  0
ARC
  8
PLAIN_
  6
SOLID
 62
     7
 10
-126.714263916
 20
51.877555847
 30
0.000000000
 40
1.000000000
 50
92.000730658
 51
180.000000000
  0
LINE
  8
PLAIN_
  6
SOLID
 62
     7
 10
-132.816680908
 20
19.000000000
 30
0.000000000
 11
-140.000030518
 21
19.000000000
 31
0.000000000
  0
LINE
  8
PLAIN_
  6
SOLID
 62
     7
 10
-66.000000000
 20
64.700004578
 30
0.000000000
 11
-66.289886486
 21
64.989891064
 31
0.000000000
  0
LINE
  8
PLAIN_
  6
SOLID
 62
     7
 10
-127.714263916
 20
32.956710815
 30
0.000000000
 11
-127.714263916
 21
51.877555847
 31
0.000000000
  0
LINE
  8
PLAIN_
  6
SOLID
 62
     7
 10
-66.000000000
 20
-64.500000000
 30
0.000000000
 11
-66.000000000
 21
65.000000000
 31
0.000000000
  0
LINE
  8
PLAIN_
  6
SOLID
 62
     7
 10
-127.714263916
 20
-25.223388672
 30
0.000000000
 11
-138.714263916
 21
-25.223388672
 31
0.000000000
  0
LINE
  8
PLAIN_
  6
SOLID
 62
     7
 10
-138.714263916
 20
-25.223388672
 30
0.000000000
 11
-138.714263916
 21
-7.223388672
 31
0.000000000
  0
LINE
  8
PLAIN_
  6
L_DASH
 62
     7
 10
-132.714263916
 20
-21.948379517
 30
0.000000000
 11
-139.714263916
 21
-21.948379517
 31
0.000000000
  0
LINE
  8
PLAIN_
  6
SOLID
 62
     7
 10
-139.714263916
 20
-24.223388672
 30
0.000000000
 11
-139.714263916
 21
-8.223388672
 31
0.000000000
  0
LINE
  8
PLAIN_
  6
L_DASH
 62
     7
 10
638.723594752
 20
-36.285992227
 30
0.000000000
 11
661.270597470
 21
-43.611957501
 31
0.000000000
  0
ARC
  8
PLAIN_
  6
SOLID
 62
     7
 10
-138.714263916
 20
-8.223388672
 30
0.000000000
 40
1.000000000
 50
90.000017986
 51
180.000000000
  0
ARC
  8
PLAIN_
  6
SOLID
 62
     7
 10
-138.714263916
 20
-24.223388672
 30
0.000000000
 40
1.000000000
 50
180.000000000
 51
269.999982014
  0
LINE
  8
PLAIN_
  6
L_DASH
 62
     7
 10
-132.714263916
 20
-19.085891724
 30
0.000000000
 11
-139.714263916
 21
-19.085891724
 31
0.000000000
  0
LINE
  8
PLAIN_
  6
L_DASH
 62
     7
 10
-132.714263916
 20
-21.948379517
 30
0.000000000
 11
-132.714263916
 21
-10.498397827
 31
0.000000000
  0
LINE
  8
PLAIN_
  6
L_DASH
 62
     7
 10
-132.714263916
 20
-10.498397827
 30
0.000000000
 11
-139.714263916
 21
-10.498397827
 31
0.000000000
  0
LINE
  8
PLAIN_
  6
L_DASH
 62
     7
 10
-132.714263916
 20
-13.360885620
 30
0.000000000
 11
-139.714263916
 21
-13.360885620
 31
0.000000000
  0
ARC
  8
PLAIN_
  6
L_DASH
 62
     7
 10
635.633432971
 20
-45.796529072
 30
0.000000000
 40
10.000000000
 50
161.999988217
 51
252.000001996
  0
LINE
  8
PLAIN_
  6
SOLID
 62
     7
 10
-117.000000000
 20
0.314712524
 30
0.000000000
 11
-117.000000000
 21
25.935287476
 31
0.000000000
  0
LINE
  8
PLAIN_
  6
SOLID
 62
     7
 10
675.179741994
 20
18.360093802
 30
0.000000000
 11
678.866474199
 21
16.393138323
 31
0.000000000
  0
LINE
  8
PLAIN_
  6
SOLID
 62
     7
 10
651.539580418
 20
90.034752404
 30
0.000000000
 11
652.979104271
 21
93.901764960
 31
0.000000000
  0
LINE
  8
PLAIN_
  6
SOLID
 62
     7
 10
569.065203074
 20
-165.156490464
 30
0.000000000
 11
568.333780154
 21
-169.270603822
 31
0.000000000
  0
LINE
  8
PLAIN_
  6
SOLID
 62
     7
 10
629.926642514
 20
-120.524673178
 30
0.000000000
 11
634.049227338
 21
-120.698769121
 31
0.000000000
  0
LINE
  8
PLAIN_
  6
SOLID
 62
     7
 10
361.739363883
 20
-120.945310039
 30
0.000000000
 11
357.600587453
 21
-121.521016449
 31
0.000000000
  0
LINE
  8
PLAIN_
  6
SOLID
 62
     7
 10
422.993963636
 20
-165.035988578
 30
0.000000000
 11
424.102337327
 21
-169.010598344
 31
0.000000000
  0
LINE
  8
PLAIN_
  6
SOLID
 62
     7
 10
339.719487436
 20
89.895286413
 30
0.000000000
 11
337.893005851
 21
93.653593642
 31
0.000000000
  0
LINE
  8
PLAIN_
  6
SOLID
 62
     7
 10
316.715472612
 20
18.013931202
 30
0.000000000
 11
313.277900400
 21
15.731583218
 31
0.000000000
  0
LINE
  8
PLAIN_
  6
SOLID
 62
     7
 10
457.964431763
 20
175.656318665
 30
0.000000000
 11
454.731521606
 21
178.220359802
 31
0.000000000
  0
LINE
  8
PLAIN_
  6
SOLID
 62
     7
 10
533.436294556
 20
175.990760803
 30
0.000000000
 11
536.446243286
 21
178.889228821
 31
0.000000000
  0
ARC
  8
PLAIN_
  6
SOLID
 62
     7
 10
670.493303464
 20
21.267508626
 30
0.000000000
 40
5.000000000
 50
290.999109241
 51
8.041913622
  0
ARC
  8
PLAIN_
  6
SOLID
 62
     7
 10
495.827840422
 20
-0.371027274
 30
0.000000000
 40
181.000000000
 50
7.089203975
 51
17.999907208
  0
ARC
  8
PLAIN_
  6
SOLID
 62
     7
 10
495.827776836
 20
-0.371239885
 30
0.000000000
 40
181.000000000
 50
17.999998999
 51
28.937463191
  0
ARC
  8
PLAIN_
  6
SOLID
 62
     7
 10
649.853885165
 20
84.787188664
 30
0.000000000
 40
5.000000000
 50
28.937463191
 51
104.999998815
  0
ARC
  8
PLAIN_
  6
SOLID
 62
     7
 10
570.381888481
 20
-159.801072756
 30
0.000000000
 40
5.000000000
 50
218.999109241
 51
296.041913622
  0
ARC
  8
PLAIN_
  6
SOLID
 62
     7
 10
495.827821500
 20
-0.371021284
 30
0.000000000
 40
181.000000000
 50
295.089203975
 51
305.999907208
  0
ARC
  8
PLAIN_
  6
SOLID
 62
     7
 10
495.827615783
 20
-0.371067458
 30
0.000000000
 40
181.000000000
 50
305.999997003
 51
316.937461195
  0
ARC
  8
PLAIN_
  6
SOLID
 62
     7
 10
624.414775038
 20
-120.543204307
 30
0.000000000
 40
5.000000000
 50
316.937461195
 51
32.999996820
  0
ARC
  8
PLAIN_
  6
SOLID
 62
     7
 10
367.239305701
 20
-120.542727975
 30
0.000000000
 40
5.000000000
 50
146.999109241
 51
224.041913622
  0
ARC
  8
PLAIN_
  6
SOLID
 62
     7
 10
495.827821349
 20
-0.371001438
 30
0.000000000
 40
181.000000000
 50
223.089203975
 51
233.999907208
  0
ARC
  8
PLAIN_
  6
SOLID
 62
     7
 10
87.548781818
 20
175.988828000
 30
0.000000000
 40
10.000000000
 50
80.000000000
 51
89.000000000
  0
ARC
  8
PLAIN_
  6
SOLID
 62
     7
 10
495.827757411
 20
-0.370887269
 30
0.000000000
 40
181.000000000
 50
233.999994588
 51
244.937458780
  0
ARC
  8
PLAIN_
  6
SOLID
 62
     7
 10
421.272874330
 20
-159.799772383
 30
0.000000000
 40
5.000000000
 50
244.937458780
 51
320.999994404
  0
ARC
  8
PLAIN_
  6
SOLID
 62
     7
 10
341.801699963
 20
84.788844823
 30
0.000000000
 40
5.000000000
 50
74.999109241
 51
152.041913622
  0
ARC
  8
PLAIN_
  6
SOLID
 62
     7
 10
495.827840178
 20
-0.370995161
 30
0.000000000
 40
181.000000000
 50
151.089203975
 51
161.999907208
  0
ARC
  8
PLAIN_
  6
SOLID
 62
     7
 10
495.828006560
 20
-0.370845424
 30
0.000000000
 40
181.000000000
 50
162.000002180
 51
172.937466372
  0
ARC
  8
PLAIN_
  6
SOLID
 62
     7
 10
321.163397734
 20
21.268803913
 30
0.000000000
 40
5.000000000
 50
172.937466372
 51
249.000001996
  0
LINE
  8
PLAIN_
  6
SOLID
 62
     7
 10
393.401321411
 20
-140.557731628
 30
0.000000000
 11
390.468425756
 21
-144.592700221
 31
0.000000000
  0
LINE
  8
PLAIN_
  6
SOLID
 62
     7
 10
394.437881470
 20
-143.375602722
 30
0.000000000
 11
391.358352836
 21
-141.121299744
 31
0.000000000
  0
LINE
  8
PLAIN_
  6
SOLID
 62
     7
 10
394.447952271
 20
-143.345405579
 30
0.000000000
 11
393.970711208
 21
-144.038327691
 31
0.000000000
  0
LINE
  8
PLAIN_
  6
SOLID
 62
     7
 10
393.970727180
 20
-144.038331045
 30
0.000000000
 11
390.801160062
 21
-144.849815414
 31
0.000000000
  0
LINE
  8
PLAIN_
  6
SOLID
 62
     7
 10
390.801165423
 20
-144.849824275
 30
0.000000000
 11
390.468405802
 21
-144.592698081
 31
0.000000000
  0
CIRCLE
  8
PLAIN_
  6
SOLID
 62
     7
 10
495.828078949
 20
-0.371031278
 30
0.000000000
 40
87.500000000
  0
ARC
  8
PLAIN_
  6
SOLID
 62
     7
 10
495.827851965
 20
-0.371011129
 30
0.000000000
 40
181.000000000
 50
79.089203974
 51
89.999907206
  0
ARC
  8
PLAIN_
  6
SOLID
 62
     7
 10
495.828018188
 20
-0.371131897
 30
0.000000000
 40
181.000000000
 50
90.000000184
 51
100.937464376
  0
LINE
  8
PLAIN_
  6
SOLID
 62
     7
 10
613.933263009
 20
-5.798394560
 30
0.000000000
 11
672.285258386
 21
16.599796990
 31
0.000000000
  0
ARC
  8
PLAIN_
  6
SOLID
 62
     7
 10
-123.000030518
 20
0.314712524
 30
0.000000000
 40
6.000000000
 50
272.000141441
 51
359.999984518
  0
LINE
  8
PLAIN_
  6
SOLID
 62
     7
 10
537.486317346
 20
110.276525876
 30
0.000000000
 11
534.216129547
 21
172.693993150
 31
0.000000000
  0
ARC
  8
PLAIN_
  6
SOLID
 62
     7
 10
529.222977805
 20
172.432390996
 30
0.000000000
 40
5.000000000
 50
2.999109241
 51
80.041913623
  0
LINE
  8
PLAIN_
  6
SOLID
 62
     7
 10
1.000012286
 20
189.899953731
 30
0.000000000
 11
0.000003815
 21
188.899945259
 31
0.000000000
  0
ARC
  8
PLAIN_
  6
SOLID
 62
     7
 10
-123.000030518
 20
25.935287476
 30
0.000000000
 40
6.000000000
 50
359.999991349
 51
88.000134955
  0
LINE
  8
PLAIN_
  6
CENTER
 62
     7
 10
-89.961212158
 20
-16.223388672
 30
0.000000000
 11
-143.357147217
 21
-16.223388672
 31
0.000000000
  0
LINE
  8
PLAIN_
  6
CENTER
 62
     7
 10
-89.953582764
 20
42.473403931
 30
0.000000000
 11
-143.357147217
 21
42.473403931
 31
0.000000000
  0
ARC
  8
PLAIN_
  6
SOLID
 62
     7
 10
619.308564044
 20
-19.802204286
 30
0.000000000
 40
15.000000000
 50
110.999108056
 51
171.057147887
  0
LINE
  8
PLAIN_
  6
CENTER
 62
     7
 10
-54.285385132
 20
0.000000000
 30
0.000000000
 11
-148.000000000
 21
0.000000000
 31
0.000000000
  0
LINE
  8
PLAIN_
  6
SOLID
 62
     7
 10
-107.065124512
 20
-65.625480320
 30
0.000000000
 11
-119.000000000
 21
-65.000000000
 31
0.000000000
  0
LINE
  8
PLAIN_
  6
SOLID
 62
     7
 10
588.186841767
 20
73.440123971
 30
0.000000000
 11
648.559976017
 21
89.617056539
 31
0.000000000
  0
ARC
  8
PLAIN_
  6
SOLID
 62
     7
 10
113.586721520
 20
171.397636708
 30
0.000000000
 40
10.000000000
 50
9.682541820
 51
80.000000000
  0
LINE
  8
PLAIN_
  6
SOLID
 62
     7
 10
-107.065124512
 20
-40.374519680
 30
0.000000000
 11
-119.000000000
 21
-41.000000000
 31
0.000000000
  0
ARC
  8
PLAIN_
  6
SOLID
 62
     7
 10
-142.999969482
 20
-21.196166992
 30
0.000000000
 40
3.000000000
 50
359.999308330
 51
60.000286716
  0
LINE
  8
PLAIN_
  6
SOLID
 62
     7
 10
-140.000030518
 20
4.000000000
 30
0.000000000
 11
-140.000030518
 21
-21.500000000
 31
0.000000000
  0
LINE
  8
PLAIN_
  6
SOLID
 62
     7
 10
13.000003815
 20
189.899945259
 30
0.000000000
 11
14.797612554
 21
188.102336519
 31
0.000000000
  0
LINE
  8
PLAIN_
  6
SOLID
 62
     7
 10
195.999991775
 20
-16.500000477
 30
0.000000000
 11
195.999991775
 21
-12.081917805
 31
0.000000000
  0
ARC
  8
PLAIN_
  6
SOLID
 62
     7
 10
584.304557822
 20
87.928992331
 30
0.000000000
 40
15.000000000
 50
224.942768164
 51
284.999998815
  0
LINE
  8
PLAIN_
  6
SOLID
 62
     7
 10
527.162858928
 20
-114.372883418
 30
0.000000000
 11
566.496563181
 21
-162.947507028
 31
0.000000000
  0
ARC
  8
PLAIN_
  6
SOLID
 62
     7
 10
515.505515643
 20
-123.812555318
 30
0.000000000
 40
15.000000000
 50
38.999106060
 51
99.057145892
  0
ARC
  8
PLAIN_
  6
SOLID
 62
     7
 10
18.300730285
 20
-182.500000477
 30
0.000000000
 40
5.000000000
 50
270.000000000
 51
336.785903808
  0
LINE
  8
PLAIN_
  6
SOLID
 62
     7
 10
594.567086610
 20
-65.400532890
 30
0.000000000
 11
628.608588229
 21
-117.819848547
 31
0.000000000
  0
ARC
  8
PLAIN_
  6
SOLID
 62
     7
 10
607.147141719
 20
-57.230999718
 30
0.000000000
 40
15.000000000
 50
152.942766168
 51
212.999996820
  0
LINE
  8
PLAIN_
  6
SOLID
 62
     7
 10
397.088854326
 20
-65.400687408
 30
0.000000000
 11
363.046425081
 21
-117.819647339
 31
0.000000000
  0
ARC
  8
PLAIN_
  6
SOLID
 62
     7
 10
-140.000030518
 20
-16.000000000
 30
0.000000000
 40
3.000000000
 50
180.000000000
 51
240.000254387
  0
ARC
  8
PLAIN_
  6
SOLID
 62
     7
 10
384.508916818
 20
-57.230976671
 30
0.000000000
 40
15.000000000
 50
326.999103644
 51
27.057143476
  0
ARC
  8
PLAIN_
  6
SOLID
 62
     7
 10
-122.000030518
 20
-21.500000000
 30
0.000000000
 40
18.000000000
 50
180.000000000
 51
218.010600207
  0
LINE
  8
PLAIN_
  6
SOLID
 62
     7
 10
464.493379261
 20
-114.372628804
 30
0.000000000
 11
425.159050039
 21
-162.946480114
 31
0.000000000
  0
ARC
  8
PLAIN_
  6
SOLID
 62
     7
 10
476.150556179
 20
-123.812513985
 30
0.000000000
 40
15.000000000
 50
80.942763753
 51
140.999994404
  0
ARC
  8
PLAIN_
  6
CENTER
 62
     7
 10
495.828094923
 20
-0.371023190
 30
0.000000000
 40
155.000000000
 50
336.488047062
 51
347.184489985
  0
LINE
  8
PLAIN_
  6
SOLID
 62
     7
 10
403.469102510
 20
73.440283088
 30
0.000000000
 11
343.096019923
 21
89.618207806
 31
0.000000000
  0
ARC
  8
PLAIN_
  6
SOLID
 62
     7
 10
407.351610524
 20
87.929136011
 30
0.000000000
 40
15.000000000
 50
254.999111237
 51
315.057151068
  0
LINE
  8
PLAIN_
  6
SOLID
 62
     7
 10
377.723162233
 20
-5.798391718
 30
0.000000000
 11
319.371708230
 21
16.600632865
 31
0.000000000
  0
ARC
  8
PLAIN_
  6
SOLID
 62
     7
 10
372.347643826
 20
-19.802073447
 30
0.000000000
 40
15.000000000
 50
8.942771345
 51
69.000001996
  0
LINE
  8
PLAIN_
  6
SOLID
 62
     7
 10
195.999991775
 20
16.499999523
 30
0.000000000
 11
195.999991775
 21
12.692140700
 31
0.000000000
  0
ARC
  8
PLAIN_
  6
CENTER
 62
     7
 10
495.828095105
 20
-0.371022586
 30
0.000000000
 40
155.000000000
 50
264.488045066
 51
275.184487989
  0
ARC
  8
PLAIN_
  6
SOLID
 62
     7
 10
-126.714263916
 20
-25.627532959
 30
0.000000000
 40
1.000000000
 50
180.000000000
 51
267.999269342
  0
LINE
  8
PLAIN_
  6
SOLID
 62
     7
 10
601.280682953
 20
-144.666381339
 30
0.000000000
 11
601.519830329
 21
-143.494905842
 31
0.000000000
  0
LINE
  8
PLAIN_
  6
SOLID
 62
     7
 10
13.000003815
 20
-189.899946213
 30
0.000000000
 11
15.399949551
 21
-187.500000477
 31
0.000000000
  0
ARC
  8
PLAIN_
  6
SOLID
 62
     7
 10
552.465772571
 20
111.061332339
 30
0.000000000
 40
15.000000000
 50
182.999109241
 51
243.057149072
  0
LINE
  8
PLAIN_
  6
SOLID
 62
     7
 10
600.210265155
 20
-145.386694914
 30
0.000000000
 11
601.280682953
 21
-144.666381339
 31
0.000000000
  0
ARC
  8
PLAIN_
  6
SOLID
 62
     7
 10
439.190483226
 20
111.061312361
 30
0.000000000
 40
15.000000000
 50
296.942769349
 51
357.000000001
  0
ARC
  8
PLAIN_
  6
SOLID
 62
     7
 10
-144.061141968
 20
-38.742603098
 30
0.000000000
 40
10.000000000
 50
360.000000000
 51
38.010610225
  0
LINE
  8
PLAIN_
  6
SOLID
 62
     7
 10
599.072161492
 20
-145.120471907
 30
0.000000000
 11
600.210265155
 21
-145.386694914
 31
0.000000000
  0
LINE
  8
PLAIN_
  6
SOLID
 62
     7
 10
598.626873851
 20
-144.380339293
 30
0.000000000
 11
599.072161492
 21
-145.120471907
 31
0.000000000
  0
LINE
  8
PLAIN_
  6
SOLID
 62
     7
 10
598.868889662
 20
-143.200561333
 30
0.000000000
 11
598.626873851
 21
-144.380339293
 31
0.000000000
  0
LINE
  8
PLAIN_
  6
SOLID
 62
     7
 10
13.000003815
 20
-189.899946213
 30
0.000000000
 11
1.000032663
 21
-189.899946213
 31
0.000000000
  0
LINE
  8
PLAIN_
  6
SOLID
 62
     7
 10
597.741452191
 20
-143.018873131
 30
0.000000000
 11
598.868889662
 21
-143.200561333
 31
0.000000000
  0
LINE
  8
PLAIN_
  6
SOLID
 62
     7
 10
597.240406211
 20
-142.315746442
 30
0.000000000
 11
597.741452191
 21
-143.018873131
 31
0.000000000
  0
LINE
  8
PLAIN_
  6
SOLID
 62
     7
 10
597.465913944
 20
-141.149564589
 30
0.000000000
 11
597.240406211
 21
-142.315746442
 31
0.000000000
  0
LINE
  8
PLAIN_
  6
SOLID
 62
     7
 10
598.567276511
 20
-140.457843035
 30
0.000000000
 11
597.465913944
 21
-141.149564589
 31
0.000000000
  0
LINE
  8
PLAIN_
  6
SOLID
 62
     7
 10
599.615494181
 20
-140.700366976
 30
0.000000000
 11
598.567276511
 21
-140.457843035
 31
0.000000000
  0
ARC
  8
PLAIN_
  6
SOLID
 62
     7
 10
49.541679416
 20
-138.270143850
 30
0.000000000
 40
13.000000000
 50
91.500000083
 51
171.253121939
  0
LINE
  8
PLAIN_
  6
L_DASH
 62
     7
 10
632.543261928
 20
-55.307097826
 30
0.000000000
 11
655.090278987
 21
-62.633067760
 31
0.000000000
  0
ARC
  8
PLAIN_
  6
L_DASH
 62
     7
 10
495.828091972
 20
-147.371053645
 30
0.000000000
 40
10.000000000
 50
89.999986222
 51
180.000000000
  0
ARC
  8
PLAIN_
  6
SOLID
 62
     7
 10
-126.714263916
 20
-6.819244385
 30
0.000000000
 40
1.000000000
 50
92.000730658
 51
180.000000000
  0
LINE
  8
PLAIN_
  6
SOLID
 62
     7
 10
-87.061142055
 20
-68.000000087
 30
0.000000000
 11
-83.561141662
 21
-64.500000000
 31
0.000000000
  0
ARC
  8
PLAIN_
  6
L_DASH
 62
     7
 10
495.828070802
 20
-0.371048050
 30
0.000000000
 40
171.000000000
 50
132.936060001
 51
194.647458519
  0
LINE
  8
PLAIN_
  6
CENTER
 62
     7
 10
92.229557037
 20
-155.000002861
 30
0.000000000
 11
160.808292389
 21
-155.000002861
 31
0.000000000
  0
POLYLINE
  8
PLAIN_
  6
SOLID
 62
     7
 66
     1
 10
0.000000000
 20
0.000000000
 30
0.000000000
  0
VERTEX
  8
PLAIN_
 10
197.999991596
 20
13.317395434
 30
0.000000000
  0
VERTEX
  8
PLAIN_
 10
196.301847998
 20
12.783083884
 30
0.000000000
  0
VERTEX
  8
PLAIN_
 10
194.598427060
 20
12.294679935
 30
0.000000000
  0
VERTEX
  8
PLAIN_
 10
193.743604253
 20
12.077552194
 30
0.000000000
  0
VERTEX
  8
PLAIN_
 10
192.886102110
 20
11.883732012
 30
0.000000000
  0
VERTEX
  8
PLAIN_
 10
192.025467297
 20
11.717162943
 30
0.000000000
  0
VERTEX
  8
PLAIN_
 10
191.161246479
 20
11.581788540
 30
0.000000000
  0
VERTEX
  8
PLAIN_
 10
190.375809903
 20
11.488533555
 30
0.000000000
  0
VERTEX
  8
PLAIN_
 10
189.587394722
 20
11.421414013
 30
0.000000000
  0
VERTEX
  8
PLAIN_
 10
188.796330300
 20
11.377789346
 30
0.000000000
  0
VERTEX
  8
PLAIN_
 10
188.002945997
 20
11.355018984
 30
0.000000000
  0
VERTEX
  8
PLAIN_
 10
186.410535198
 20
11.361478902
 30
0.000000000
  0
VERTEX
  8
PLAIN_
 10
184.812797224
 20
11.419669216
 30
0.000000000
  0
VERTEX
  8
PLAIN_
 10
180.013969214
 20
11.693377020
 30
0.000000000
  0
VERTEX
  8
PLAIN_
 10
178.421271503
 20
11.747243404
 30
0.000000000
  0
VERTEX
  8
PLAIN_
 10
176.864024513
 20
11.752645744
 30
0.000000000
  0
VERTEX
  8
PLAIN_
 10
175.308461858
 20
11.715033159
 30
0.000000000
  0
VERTEX
  8
PLAIN_
 10
173.748705944
 20
11.643323195
 30
0.000000000
  0
VERTEX
  8
PLAIN_
 10
172.178879181
 20
11.546433398
 30
0.000000000
  0
VERTEX
  8
PLAIN_
 10
165.681311786
 20
11.085426807
 30
0.000000000
  0
VERTEX
  8
PLAIN_
 10
163.010259077
 20
10.919865279
 30
0.000000000
  0
VERTEX
  8
PLAIN_
 10
161.680215702
 20
10.794331520
 30
0.000000000
  0
VERTEX
  8
PLAIN_
 10
160.376135549
 20
10.607960280
 30
0.000000000
  0
VERTEX
  8
PLAIN_
 10
159.739060095
 20
10.484381975
 30
0.000000000
  0
VERTEX
  8
PLAIN_
 10
159.114749544
 20
10.336499945
 30
0.000000000
  0
VERTEX
  8
PLAIN_
 10
158.505295263
 20
10.161282738
 30
0.000000000
  0
VERTEX
  8
PLAIN_
 10
157.912788616
 20
9.955698903
 30
0.000000000
  0
VERTEX
  8
PLAIN_
 10
157.339320969
 20
9.716716987
 30
0.000000000
  0
VERTEX
  8
PLAIN_
 10
156.786983689
 20
9.441305539
 30
0.000000000
  0
VERTEX
  8
PLAIN_
 10
156.257868142
 20
9.126433108
 30
0.000000000
  0
VERTEX
  8
PLAIN_
 10
155.754065692
 20
8.769068241
 30
0.000000000
  0
VERTEX
  8
PLAIN_
 10
155.417498410
 20
8.492379929
 30
0.000000000
  0
VERTEX
  8
PLAIN_
 10
155.094555924
 20
8.194585736
 30
0.000000000
  0
VERTEX
  8
PLAIN_
 10
154.785434845
 20
7.876886489
 30
0.000000000
  0
VERTEX
  8
PLAIN_
 10
154.490331783
 20
7.540483011
 30
0.000000000
  0
VERTEX
  8
PLAIN_
 10
154.209443347
 20
7.186576127
 30
0.000000000
  0
VERTEX
  8
PLAIN_
 10
153.942966148
 20
6.816366663
 30
0.000000000
  0
VERTEX
  8
PLAIN_
 10
153.454031898
 20
6.031843291
 30
0.000000000
  0
VERTEX
  8
PLAIN_
 10
153.025101910
 20
5.196519493
 30
0.000000000
  0
VERTEX
  8
PLAIN_
 10
152.657749062
 20
4.320001867
 30
0.000000000
  0
VERTEX
  8
PLAIN_
 10
152.353546234
 20
3.411897011
 30
0.000000000
  0
VERTEX
  8
PLAIN_
 10
152.114066303
 20
2.481811523
 30
0.000000000
  0
VERTEX
  8
PLAIN_
 10
152.006903697
 20
1.944144317
 30
0.000000000
  0
VERTEX
  8
PLAIN_
 10
151.921793196
 20
1.404121517
 30
0.000000000
  0
VERTEX
  8
PLAIN_
 10
151.859139301
 20
0.863428032
 30
0.000000000
  0
VERTEX
  8
PLAIN_
 10
151.819346516
 20
0.323748769
 30
0.000000000
  0
VERTEX
  8
PLAIN_
 10
151.802819344
 20
-0.213231364
 30
0.000000000
  0
VERTEX
  8
PLAIN_
 10
151.809962290
 20
-0.745827460
 30
0.000000000
  0
VERTEX
  8
PLAIN_
 10
151.841179856
 20
-1.272354611
 30
0.000000000
  0
VERTEX
  8
PLAIN_
 10
151.896876545
 20
-1.791127909
 30
0.000000000
  0
VERTEX
  8
PLAIN_
 10
151.977456862
 20
-2.300462448
 30
0.000000000
  0
VERTEX
  8
PLAIN_
 10
152.083325308
 20
-2.798673318
 30
0.000000000
  0
VERTEX
  8
PLAIN_
 10
152.214886388
 20
-3.284075613
 30
0.000000000
  0
VERTEX
  8
PLAIN_
 10
152.372544606
 20
-3.754984424
 30
0.000000000
  0
VERTEX
  8
PLAIN_
 10
152.556704463
 20
-4.209714845
 30
0.000000000
  0
VERTEX
  8
PLAIN_
 10
152.767770464
 20
-4.646581968
 30
0.000000000
  0
VERTEX
  8
PLAIN_
 10
153.006147112
 20
-5.063900884
 30
0.000000000
  0
VERTEX
  8
PLAIN_
 10
153.272238910
 20
-5.459986687
 30
0.000000000
  0
VERTEX
  8
PLAIN_
 10
153.577214478
 20
-5.846700485
 30
0.000000000
  0
VERTEX
  8
PLAIN_
 10
153.910340431
 20
-6.209890305
 30
0.000000000
  0
VERTEX
  8
PLAIN_
 10
154.269575479
 20
-6.550638924
 30
0.000000000
  0
VERTEX
  8
PLAIN_
 10
154.652878332
 20
-6.870029121
 30
0.000000000
  0
VERTEX
  8
PLAIN_
 10
155.058207697
 20
-7.169143673
 30
0.000000000
  0
VERTEX
  8
PLAIN_
 10
155.483522284
 20
-7.449065359
 30
0.000000000
  0
VERTEX
  8
PLAIN_
 10
155.926780803
 20
-7.710876957
 30
0.000000000
  0
VERTEX
  8
PLAIN_
 10
156.385941962
 20
-7.955661246
 30
0.000000000
  0
VERTEX
  8
PLAIN_
 10
157.343807038
 20
-8.398479007
 30
0.000000000
  0
VERTEX
  8
PLAIN_
 10
158.340787184
 20
-8.786180868
 30
0.000000000
  0
VERTEX
  8
PLAIN_
 10
159.360552074
 20
-9.127429054
 30
0.000000000
  0
VERTEX
  8
PLAIN_
 10
160.386771381
 20
-9.430885792
 30
0.000000000
  0
VERTEX
  8
PLAIN_
 10
161.737443819
 20
-9.786508445
 30
0.000000000
  0
VERTEX
  8
PLAIN_
 10
163.073947606
 20
-10.089824562
 30
0.000000000
  0
VERTEX
  8
PLAIN_
 10
164.399504317
 20
-10.339820483
 30
0.000000000
  0
VERTEX
  8
PLAIN_
 10
165.717335530
 20
-10.535482546
 30
0.000000000
  0
VERTEX
  8
PLAIN_
 10
167.030662822
 20
-10.675797089
 30
0.000000000
  0
VERTEX
  8
PLAIN_
 10
168.342707768
 20
-10.759750451
 30
0.000000000
  0
VERTEX
  8
PLAIN_
 10
169.656691946
 20
-10.786328970
 30
0.000000000
  0
VERTEX
  8
PLAIN_
 10
170.975836933
 20
-10.754518986
 30
0.000000000
  0
VERTEX
  8
PLAIN_
 10
172.423328005
 20
-10.657394357
 30
0.000000000
  0
VERTEX
  8
PLAIN_
 10
175.335024870
 20
-10.374443725
 30
0.000000000
  0
VERTEX
  8
PLAIN_
 10
176.792624425
 20
-10.250307261
 30
0.000000000
  0
VERTEX
  8
PLAIN_
 10
178.246987238
 20
-10.178856394
 30
0.000000000
  0
VERTEX
  8
PLAIN_
 10
178.971922642
 20
-10.172527050
 30
0.000000000
  0
VERTEX
  8
PLAIN_
 10
179.694810191
 20
-10.190935894
 30
0.000000000
  0
VERTEX
  8
PLAIN_
 10
180.415236995
 20
-10.237938522
 30
0.000000000
  0
VERTEX
  8
PLAIN_
 10
181.132790165
 20
-10.317390530
 30
0.000000000
  0
VERTEX
  8
PLAIN_
 10
181.847056811
 20
-10.433147516
 30
0.000000000
  0
VERTEX
  8
PLAIN_
 10
182.557624042
 20
-10.589065075
 30
0.000000000
  0
VERTEX
  8
PLAIN_
 10
183.381861046
 20
-10.822752420
 30
0.000000000
  0
VERTEX
  8
PLAIN_
 10
184.202655421
 20
-11.097760734
 30
0.000000000
  0
VERTEX
  8
PLAIN_
 10
186.665929491
 20
-11.984812181
 30
0.000000000
  0
VERTEX
  8
PLAIN_
 10
187.494500072
 20
-12.239205067
 30
0.000000000
  0
VERTEX
  8
PLAIN_
 10
188.330401385
 20
-12.441969272
 30
0.000000000
  0
VERTEX
  8
PLAIN_
 10
188.751774402
 20
-12.518181266
 30
0.000000000
  0
VERTEX
  8
PLAIN_
 10
189.175788105
 20
-12.574514866
 30
0.000000000
  0
VERTEX
  8
PLAIN_
 10
189.621574777
 20
-12.610497891
 30
0.000000000
  0
VERTEX
  8
PLAIN_
 10
190.070191575
 20
-12.624965504
 30
0.000000000
  0
VERTEX
  8
PLAIN_
 10
190.974542563
 20
-12.600138481
 30
0.000000000
  0
VERTEX
  8
PLAIN_
 10
191.886095092
 20
-12.521601776
 30
0.000000000
  0
VERTEX
  8
PLAIN_
 10
194.636502143
 20
-12.179413325
 30
0.000000000
  0
VERTEX
  8
PLAIN_
 10
195.549401058
 20
-12.101717653
 30
0.000000000
  0
VERTEX
  8
PLAIN_
 10
196.455771625
 20
-12.078152180
 30
0.000000000
  0
VERTEX
  8
PLAIN_
 10
197.230880037
 20
-12.114316220
 30
0.000000000
  0
VERTEX
  8
PLAIN_
 10
197.999991595
 20
-12.199427323
 30
0.000000000
  0
SEQEND
  0
LINE
  8
PLAIN_
  6
SOLID
 62
     7
 10
-127.714263916
 20
-25.627532959
 30
0.000000000
 11
-127.714263916
 21
-6.819244385
 31
0.000000000
  0
LINE
  8
PLAIN_
  6
L_DASH
 62
     7
 10
130.999942780
 20
64.703864931
 30
0.000000000
 11
130.999942780
 21
-0.000000477
 31
0.000000000
  0
ARC
  8
PLAIN_
  6
SOLID
 62
     7
 10
-126.714263916
 20
-25.627532959
 30
0.000000000
 40
1.000000000
 50
180.000000000
 51
267.999269342
  0
ARC
  8
PLAIN_
  6
L_DASH
 62
     7
 10
495.828068326
 20
-147.371054568
 30
0.000000000
 40
10.000000000
 50
0.000000000
 51
90.000013778
  0
ARC
  8
PLAIN_
  6
SOLID
 62
     7
 10
462.434221276
 20
172.431803054
 30
0.000000000
 40
5.000000000
 50
100.937464376
 51
177.000000001
  0
LINE
  8
PLAIN_
  6
SOLID
 62
     7
 10
89.285263595
 20
185.836905530
 30
0.000000000
 11
115.323203297
 21
181.245714238
 31
0.000000000
  0
ARC
  8
PLAIN_
  6
SOLID
 62
     7
 10
-159.992717743
 20
-106.031403065
 30
0.000000000
 40
199.000000000
 50
336.785903808
 51
351.253121939
  0
LINE
  8
PLAIN_
  6
SOLID
 62
     7
 10
-66.000000000
 20
-64.500000000
 30
0.000000000
 11
-66.000000000
 21
10.439288932
 31
0.000000000
  0
LINE
  8
PLAIN_
  6
SOLID
 62
     7
 10
-66.000000000
 20
64.700006485
 30
0.000000000
 11
-66.289886486
 21
64.989892971
 31
0.000000000
  0
LINE
  8
PLAIN_
  6
SOLID
 62
     7
 10
-132.061141880
 20
-68.000000087
 30
0.000000000
 11
-134.061141968
 21
-66.000000175
 31
0.000000000
  0
LINE
  8
PLAIN_
  6
SOLID
 62
     7
 10
454.169926248
 20
110.276273018
 30
0.000000000
 11
457.441073603
 21
172.693482836
 31
0.000000000
  0
LINE
  8
PLAIN_
  6
SOLID
 62
     7
 10
-66.000000000
 20
-64.499998093
 30
0.000000000
 11
-66.000000000
 21
65.000001907
 31
0.000000000
  0
ARC
  8
PLAIN_
  6
SOLID
 62
     7
 10
16.918932898
 20
190.223656863
 30
0.000000000
 40
3.000000000
 50
225.000000000
 51
269.000000000
  0
LINE
  8
PLAIN_
  6
SOLID
 62
     7
 10
16.866575679
 20
187.224113777
 30
0.000000000
 11
87.723305882
 21
185.987304951
 31
0.000000000
  0
LINE
  8
PLAIN_
  6
L_DASH
 62
     7
 10
130.999942780
 20
-64.703865884
 30
0.000000000
 11
130.999942780
 21
-0.000000477
 31
0.000000000
  0
LINE
  8
PLAIN_
  6
SOLID
 62
     7
 10
-134.061141968
 20
-66.000000175
 30
0.000000000
 11
-134.061141968
 21
-38.742564052
 31
0.000000000
  0
ARC
  8
PLAIN_
  6
SOLID
 62
     7
 10
-119.000000000
 20
-53.000000000
 30
0.000000000
 40
12.000000000
 50
90.000000000
 51
270.000000000
  0
LINE
  8
PLAIN_
  6
SOLID
 62
     7
 10
-87.061142055
 20
-68.000000087
 30
0.000000000
 11
-132.061141880
 21
-68.000000087
 31
0.000000000
  0
ARC
  8
PLAIN_
  6
SOLID
 62
     7
 10
503.028948769
 20
-140.185938484
 30
0.000000000
 40
30.000000000
 50
38.999109241
 51
92.948333959
  0
LINE
  8
PLAIN_
  6
SOLID
 62
     7
 10
-117.000000000
 20
0.314712524
 30
0.000000000
 11
-117.000000000
 21
12.079382847
 31
0.000000000
  0
ARC
  8
PLAIN_
  6
SOLID
 62
     7
 10
-123.000030518
 20
0.314712524
 30
0.000000000
 40
6.000000000
 50
272.000141441
 51
359.999984518
  0
LINE
  8
PLAIN_
  6
SOLID
 62
     7
 10
-126.749176025
 20
-5.819854736
 30
0.000000000
 11
-85.895293786
 21
-4.078918516
 31
0.000000000
  0
LINE
  8
PLAIN_
  6
SOLID
 62
     7
 10
125.953982129
 20
170.999999523
 30
0.000000000
 11
126.000003815
 21
170.999999523
 31
0.000000000
  0
LINE
  8
PLAIN_
  6
SOLID
 62
     7
 10
-126.749176025
 20
-26.626922607
 30
0.000000000
 11
-85.895293786
 21
-28.367858828
 31
0.000000000
  0
LINE
  8
PLAIN_
  6
SOLID
 62
     7
 10
126.000003815
 20
132.499999523
 30
0.000000000
 11
134.999992371
 21
132.499999523
 31
0.000000000
  0
LINE
  8
PLAIN_
  6
SOLID
 62
     7
 10
135.000003815
 20
132.499999523
 30
0.000000000
 11
136.000003815
 21
131.499999523
 31
0.000000000
  0
LINE
  8
PLAIN_
  6
SOLID
 62
     7
 10
516.828079224
 20
-149.371252060
 30
0.000000000
 11
516.828079224
 21
-179.371252060
 31
0.000000000
  0
LINE
  8
PLAIN_
  6
SOLID
 62
     7
 10
136.000003815
 20
-0.000000477
 30
0.000000000
 11
136.000003815
 21
131.499998093
 31
0.000000000
  0
LINE
  8
PLAIN_
  6
SOLID
 62
     7
 10
474.828079224
 20
-149.371252060
 30
0.000000000
 11
474.828079224
 21
-179.371252060
 31
0.000000000
  0
ARC
  8
PLAIN_
  6
SOLID
 62
     7
 10
575.179345460
 20
108.846334675
 30
0.000000000
 40
16.000000000
 50
320.602277608
 51
319.964373540
  0
ARC
  8
PLAIN_
  6
SOLID
 62
     7
 10
-86.000000000
 20
-31.366012573
 30
0.000000000
 40
3.000000000
 50
0.000008651
 51
87.999851729
  0
ARC
  8
PLAIN_
  6
SOLID
 62
     7
 10
367.435132711
 20
-42.088465407
 30
0.000000000
 40
16.000000000
 50
104.602280789
 51
103.964376721
  0
ARC
  8
PLAIN_
  6
SOLID
 62
     7
 10
-86.000000000
 20
-1.080734253
 30
0.000000000
 40
3.000000000
 50
272.000127780
 51
359.999991349
  0
LINE
  8
PLAIN_
  6
SOLID
 62
     7
 10
15.399949551
 20
-187.500000477
 30
0.000000000
 11
18.300730285
 21
-187.500000477
 31
0.000000000
  0
ARC
  8
PLAIN_
  6
SOLID
 62
     7
 10
103.000034332
 20
-126.866859559
 30
0.000000000
 40
3.000000000
 50
0.000000000
 51
91.500000083
  0
LINE
  8
PLAIN_
  6
CENTER
 62
     7
 10
377.440577545
 20
-70.106800595
 30
0.000000000
 11
335.034267801
 21
-95.086026033
 31
0.000000000
  0
LINE
  8
PLAIN_
  6
SOLID
 62
     7
 10
-83.000000000
 20
-60.463912964
 30
0.000000000
 11
-83.000000000
 21
-31.366012573
 31
0.000000000
  0
LINE
  8
PLAIN_
  6
SOLID
 62
     7
 10
-66.000000000
 20
-64.500000000
 30
0.000000000
 11
-83.561141662
 21
-64.500000000
 31
0.000000000
  0
CIRCLE
  8
PLAIN_
  6
SOLID
 62
     7
 10
575.178918419
 20
108.846024309
 30
0.000000000
 40
9.315000534
  0
ARC
  8
PLAIN_
  6
L_DASH
 62
     7
 10
138.000003815
 20
-71.845234486
 30
0.000000000
 40
10.000000000
 50
134.427493689
 51
180.000000000
  0
LINE
  8
PLAIN_
  6
SOLID
 62
     7
 10
331.435536416
 20
-3.522006150
 30
0.000000000
 11
343.515576601
 21
-7.447049138
 31
0.000000000
  0
ARC
  8
PLAIN_
  6
CENTER
 62
     7
 10
495.828113033
 20
-0.371242643
 30
0.000000000
 40
162.500000000
 50
206.368659610
 51
213.980573308
  0
LINE
  8
PLAIN_
  6
L_DASH
 62
     7
 10
128.000003815
 20
-72.000001907
 30
0.000000000
 11
128.000003815
 21
-107.500000477
 31
0.000000000
  0
ARC
  8
PLAIN_
  6
SOLID
 62
     7
 10
575.178918419
 20
108.846024309
 30
0.000000000
 40
10.480000496
 50
-401.595764638
 51
-98.345720056
  0
CIRCLE
  8
PLAIN_
  6
SOLID
 62
     7
 10
367.435132711
 20
-42.088465407
 30
0.000000000
 40
9.315000534
  0
ARC
  8
PLAIN_
  6
SOLID
 62
     7
 10
367.435132711
 20
-42.088465407
 30
0.000000000
 40
10.480000496
 50
-257.595764369
 51
45.654280213
  0
ARC
  8
PLAIN_
  6
L_DASH
 62
     7
 10
138.000003815
 20
-107.654767898
 30
0.000000000
 40
10.000000000
 50
180.000000000
 51
258.463040967
  0
CIRCLE
  8
PLAIN_
  6
SOLID
 62
     7
 10
495.828018188
 20
-0.371131897
 30
0.000000000
 40
190.000000000
  0
LINE
  8
PLAIN_
  6
SOLID
 62
     7
 10
106.000034332
 20
-137.000000954
 30
0.000000000
 11
126.000034332
 21
-137.000000954
 31
0.000000000
  0
ARC
  8
PLAIN_
  6
L_DASH
 62
     7
 10
138.000003815
 20
71.845233532
 30
0.000000000
 40
10.000000000
 50
180.000000000
 51
225.572506311
  0
LINE
  8
PLAIN_
  6
SOLID
 62
     7
 10
126.000003815
 20
-0.000000477
 30
0.000000000
 11
126.000003815
 21
-171.000002861
 31
0.000000000
  0
LINE
  8
PLAIN_
  6
SOLID
 62
     7
 10
135.000003815
 20
-132.500000477
 30
0.000000000
 11
136.000003815
 21
-131.500000477
 31
0.000000000
  0
CIRCLE
  8
PLAIN_
  6
SOLID
 62
     7
 10
495.828018188
 20
-0.371131897
 30
0.000000000
 40
187.500000000
  0
LINE
  8
PLAIN_
  6
SOLID
 62
     7
 10
136.000003815
 20
-0.000000477
 30
0.000000000
 11
136.000003815
 21
-131.499999046
 31
0.000000000
  0
LINE
  8
PLAIN_
  6
SOLID
 62
     7
 10
126.000003815
 20
-132.500000477
 30
0.000000000
 11
134.999992371
 21
-132.500000477
 31
0.000000000
  0
LINE
  8
PLAIN_
  6
CENTER
 62
     7
 10
-89.961212158
 20
-16.223388672
 30
0.000000000
 11
-143.357147217
 21
-16.223388672
 31
0.000000000
  0
LINE
  8
PLAIN_
  6
CENTER
 62
     7
 10
-54.285385132
 20
-0.000000000
 30
0.000000000
 11
-148.000000000
 21
-0.000000000
 31
0.000000000
  0
ARC
  8
PLAIN_
  6
L_DASH
 62
     7
 10
131.999991596
 20
-20.700001240
 30
0.000000000
 40
1.000000000
 50
90.000000000
 51
180.000000000
  0
ARC
  8
PLAIN_
  6
L_DASH
 62
     7
 10
131.999991596
 20
20.700000286
 30
0.000000000
 40
1.000000000
 50
180.000000000
 51
270.000000000
  0
ARC
  8
PLAIN_
  6
SOLID
 62
     7
 10
-129.000030518
 20
26.956481934
 30
0.000000000
 40
6.000000000
 50
286.957762348
 51
359.999991349
  0
ARC
  8
PLAIN_
  6
SOLID
 62
     7
 10
149.999991596
 20
51.700000286
 30
0.000000000
 40
35.000000000
 50
240.140190415
 51
270.000039696
  0
LINE
  8
PLAIN_
  6
SOLID
 62
     7
 10
195.999991775
 20
-16.500000477
 30
0.000000000
 11
195.999991596
 21
-16.700001240
 31
0.000000000
  0
LINE
  8
PLAIN_
  6
SOLID
 62
     7
 10
380.473607533
 20
96.304401270
 30
0.000000000
 11
367.771901611
 21
96.304401270
 31
0.000000000
  0
LINE
  8
PLAIN_
  6
L_DASH
 62
     7
 10
136.000003815
 20
19.700000286
 30
0.000000000
 11
131.999991596
 21
19.700000286
 31
0.000000000
  0
LINE
  8
PLAIN_
  6
CENTER
 62
     7
 10
149.999991596
 20
11.347380161
 30
0.000000000
 11
149.999991596
 21
24.876889706
 31
0.000000000
  0
LINE
  8
PLAIN_
  6
SOLID
 62
     7
 10
195.999991596
 20
16.700000286
 30
0.000000000
 11
149.999991596
 21
16.700000286
 31
0.000000000
  0
LINE
  8
PLAIN_
  6
SOLID
 62
     7
 10
192.799991012
 20
19.700000286
 30
0.000000000
 11
195.999991596
 21
16.499999702
 31
0.000000000
  0
LINE
  8
PLAIN_
  6
SOLID
 62
     7
 10
197.499991775
 20
16.499999523
 30
0.000000000
 11
195.999991775
 21
16.499999523
 31
0.000000000
  0
LINE
  8
PLAIN_
  6
SOLID
 62
     7
 10
197.499991596
 20
16.499999523
 30
0.000000000
 11
197.999991596
 21
15.999999523
 31
0.000000000
  0
ARC
  8
PLAIN_
  6
SOLID
 62
     7
 10
109.000034332
 20
-167.104952791
 30
0.000000000
 40
3.000000000
 50
180.000000000
 51
267.000000001
  0
LINE
  8
PLAIN_
  6
SOLID
 62
     7
 10
108.843026464
 20
-170.100841395
 30
0.000000000
 11
126.000003815
 21
-171.000000477
 31
0.000000000
  0
LINE
  8
PLAIN_
  6
SOLID
 62
     7
 10
106.000034332
 20
-126.866859559
 30
0.000000000
 11
106.000034332
 21
-167.104952791
 31
0.000000000
  0
LINE
  8
PLAIN_
  6
SOLID
 62
     7
 10
0.000003815
 20
-189.000002861
 30
0.000000000
 11
1.000003734
 21
-190.000002781
 31
0.000000000
  0
ARC
  8
PLAIN_
  6
L_DASH
 62
     7
 10
138.000003815
 20
107.654766944
 30
0.000000000
 40
10.000000000
 50
98.849883098
 51
180.000000000
  0
LINE
  8
PLAIN_
  6
SOLID
 62
     7
 10
197.999991596
 20
-0.000011921
 30
0.000000000
 11
197.999991596
 21
15.999999523
 31
0.000000000
  0
LINE
  8
PLAIN_
  6
CENTER
 62
     7
 10
-152.843673706
 20
0.000000000
 30
0.000000000
 11
204.203872681
 21
0.000000000
 31
0.000000000
  0
LINE
  8
PLAIN_
  6
SOLID
 62
     7
 10
158.000037372
 20
7.200015068
 30
0.000000000
 11
158.000037372
 21
-7.199986734
 31
0.000000000
  0
LINE
  8
PLAIN_
  6
SOLID
 62
     7
 10
166.000037372
 20
8.000014782
 30
0.000000000
 11
194.800040424
 21
8.000014782
 31
0.000000000
  0
LINE
  8
PLAIN_
  6
SOLID
 62
     7
 10
158.000037372
 20
7.200015068
 30
0.000000000
 11
194.338172138
 21
7.200015068
 31
0.000000000
  0
LINE
  8
PLAIN_
  6
L_DASH
 62
     7
 10
128.000003815
 20
72.000000954
 30
0.000000000
 11
128.000003815
 21
107.499999523
 31
0.000000000
  0
ARC
  8
PLAIN_
  6
CENTER
 62
     7
 10
495.828113402
 20
-0.371243779
 30
0.000000000
 40
162.500000000
 50
182.019426692
 51
189.631340390
  0
LINE
  8
PLAIN_
  6
SOLID
 62
     7
 10
343.515576601
 20
-7.447049138
 30
0.000000000
 11
346.156409756
 21
-19.871192311
 31
0.000000000
  0
LINE
  8
PLAIN_
  6
CENTER
 62
     7
 10
392.921820189
 20
90.672396350
 30
0.000000000
 11
356.060894684
 21
123.284188398
 31
0.000000000
  0
CIRCLE
  8
PLAIN_
  6
SOLID
 62
     7
 10
334.076369571
 20
-15.946149323
 30
0.000000000
 40
11.000000000
  0
ARC
  8
PLAIN_
  6
CENTER
 62
     7
 10
495.828037384
 20
-0.371368204
 30
0.000000000
 40
162.500000000
 50
134.368659610
 51
141.980573308
  0
ARC
  8
PLAIN_
  6
SOLID
 62
     7
 10
488.626719721
 20
-140.185922564
 30
0.000000000
 40
30.000000000
 50
87.051539370
 51
141.000000001
  0
LINE
  8
PLAIN_
  6
CENTER
 62
     7
 10
441.040039845
 20
125.632329302
 30
0.000000000
 11
421.415034919
 21
170.766750660
 31
0.000000000
  0
ARC
  8
PLAIN_
  6
CENTER
 62
     7
 10
495.828036418
 20
-0.371368906
 30
0.000000000
 40
162.500000000
 50
110.019426692
 51
117.631340390
  0
LINE
  8
PLAIN_
  6
SOLID
 62
     7
 10
166.000037372
 20
8.000014782
 30
0.000000000
 11
166.000037372
 21
-7.999987221
 31
0.000000000
  0
LINE
  8
PLAIN_
  6
SOLID
 62
     7
 10
364.312606148
 20
-92.285353331
 30
0.000000000
 11
351.888462975
 21
-94.926186485
 31
0.000000000
  0
LINE
  8
PLAIN_
  6
CENTER
 62
     7
 10
466.089322963
 20
-134.513841490
 30
0.000000000
 11
455.436938218
 21
-182.563643871
 31
0.000000000
  0
LINE
  8
PLAIN_
  6
CENTER
 62
     7
 10
550.615890199
 20
125.632363852
 30
0.000000000
 11
570.240895125
 21
170.766785209
 31
0.000000000
  0
LINE
  8
PLAIN_
  6
SOLID
 62
     7
 10
351.888462975
 20
-94.926186485
 30
0.000000000
 11
343.389362789
 21
-85.486979454
 31
0.000000000
  0
ARC
  8
PLAIN_
  6
CENTER
 62
     7
 10
495.827894593
 20
-0.371335058
 30
0.000000000
 40
162.500000000
 50
62.368659610
 51
69.980573308
  0
LINE
  8
PLAIN_
  6
SOLID
 62
     7
 10
390.241308250
 20
-66.764337355
 30
0.000000000
 11
358.011909749
 21
-116.391569784
 31
0.000000000
  0
ARC
  8
PLAIN_
  6
SOLID
 62
     7
 10
365.081444104
 20
-50.424789650
 30
0.000000000
 40
30.000000000
 50
326.999108056
 51
20.948332773
  0
LINE
  8
PLAIN_
  6
CENTER
 62
     7
 10
598.734109856
 20
90.672430900
 30
0.000000000
 11
635.595035360
 21
123.284222948
 31
0.000000000
  0
LINE
  8
PLAIN_
  6
SOLID
 62
     7
 10
194.800040376
 20
9.000014916
 30
0.000000000
 11
194.800040376
 21
-8.999987069
 31
0.000000000
  0
ARC
  8
PLAIN_
  6
CENTER
 62
     7
 10
495.827893626
 20
-0.371334356
 30
0.000000000
 40
162.500000000
 50
38.019426692
 51
45.631340390
  0
LINE
  8
PLAIN_
  6
SOLID
 62
     7
 10
343.389362789
 20
-85.486979454
 30
0.000000000
 11
347.314405777
 21
-73.406939269
 31
0.000000000
  0
LINE
  8
PLAIN_
  6
SOLID
 62
     7
 10
347.314405777
 20
-73.406939269
 30
0.000000000
 11
359.738548950
 21
-70.766106115
 31
0.000000000
  0
LINE
  8
PLAIN_
  6
CENTER
 62
     7
 10
632.594942647
 20
-13.540384932
 30
0.000000000
 11
681.584788225
 21
-18.257570518
 31
0.000000000
  0
LINE
  8
PLAIN_
  6
SOLID
 62
     7
 10
371.381965329
 20
-8.720023650
 30
0.000000000
 11
316.137399185
 21
12.486378423
 31
0.000000000
  0
ARC
  8
PLAIN_
  6
CENTER
 62
     7
 10
495.828018188
 20
-0.371131897
 30
0.000000000
 40
162.500000000
 50
254.019426692
 51
261.631340390
  0
ARC
  8
PLAIN_
  6
SOLID
 62
     7
 10
360.630925996
 20
-36.727450853
 30
0.000000000
 40
30.000000000
 50
15.051538185
 51
68.999998815
  0
ARC
  8
PLAIN_
  6
SOLID
 62
     7
 10
-122.000030518
 20
4.000000000
 30
0.000000000
 40
18.000000000
 50
106.957762348
 51
180.000010018
  0
LINE
  8
PLAIN_
  6
SOLID
 62
     7
 10
400.056239749
 20
79.531167827
 30
0.000000000
 11
342.898505106
 21
94.847489082
 31
0.000000000
  0
ARC
  8
PLAIN_
  6
SOLID
 62
     7
 10
407.821267400
 20
108.508780611
 30
0.000000000
 40
30.000000000
 50
254.999106060
 51
308.948330778
  0
LINE
  8
PLAIN_
  6
SOLID
 62
     7
 10
359.738548950
 20
-70.766106115
 30
0.000000000
 11
368.237649135
 21
-80.205313145
 31
0.000000000
  0
LINE
  8
PLAIN_
  6
SOLID
 62
     7
 10
368.237649135
 20
-80.205313145
 30
0.000000000
 11
364.312606148
 21
-92.285353331
 31
0.000000000
  0
ARC
  8
PLAIN_
  6
CENTER
 62
     7
 10
495.828016994
 20
-0.371131897
 30
0.000000000
 40
162.500000000
 50
278.368659610
 51
285.980573308
  0
LINE
  8
PLAIN_
  6
SOLID
 62
     7
 10
449.431805067
 20
115.404148167
 30
0.000000000
 11
452.528782160
 21
174.497991417
 31
0.000000000
  0
LINE
  8
PLAIN_
  6
SOLID
 62
     7
 10
465.312340877
 20
-121.306310832
 30
0.000000000
 11
428.072344213
 21
-167.293876823
 31
0.000000000
  0
ARC
  8
PLAIN_
  6
CENTER
 62
     7
 10
495.827881991
 20
-0.371189013
 30
0.000000000
 40
162.500000000
 50
350.368659610
 51
357.980573308
  0
ARC
  8
PLAIN_
  6
SOLID
 62
     7
 10
419.472925285
 20
116.974184919
 30
0.000000000
 40
30.000000000
 50
303.051536189
 51
356.999996820
  0
LINE
  8
PLAIN_
  6
SOLID
 62
     7
 10
542.224513889
 20
115.404410569
 30
0.000000000
 11
539.128489660
 21
174.497650118
 31
0.000000000
  0
LINE
  8
PLAIN_
  6
CENTER
 62
     7
 10
614.215418216
 20
-70.106744693
 30
0.000000000
 11
656.621727961
 21
-95.085970131
 31
0.000000000
  0
ARC
  8
PLAIN_
  6
CENTER
 62
     7
 10
495.827882360
 20
-0.371187877
 30
0.000000000
 40
162.500000000
 50
326.019426692
 51
333.631340390
  0
LINE
  8
PLAIN_
  6
SOLID
 62
     7
 10
526.343621125
 20
-121.306689216
 30
0.000000000
 11
563.582492058
 21
-167.294326880
 31
0.000000000
  0
ARC
  8
PLAIN_
  6
SOLID
 62
     7
 10
-140.000030518
 20
16.000000000
 30
0.000000000
 40
3.000000000
 50
90.000017986
 51
180.000000000
  0
LINE
  8
PLAIN_
  6
SOLID
 62
     7
 10
-143.000030518
 20
-16.000000000
 30
0.000000000
 11
-143.000030518
 21
16.000000000
 31
0.000000000
  0
ARC
  8
PLAIN_
  6
CENTER
 62
     7
 10
495.827896118
 20
-0.371238708
 30
0.000000000
 40
135.000000000
 50
27.015796688
 51
66.526047427
  0
ARC
  8
PLAIN_
  6
SOLID
 62
     7
 10
-86.000000000
 20
27.645047156
 30
0.000000000
 40
3.000000000
 50
0.000000000
 51
88.000008413
  0
LINE
  8
PLAIN_
  6
SOLID
 62
     7
 10
194.800040376
 20
9.000014916
 30
0.000000000
 11
196.800040406
 21
9.000014916
 31
0.000000000
  0
CIRCLE
  8
PLAIN_
  6
SOLID
 62
     7
 10
355.813505962
 20
-82.846146300
 30
0.000000000
 40
11.000000000
  0
ARC
  8
PLAIN_
  6
SOLID
 62
     7
 10
572.183435353
 20
116.973934799
 30
0.000000000
 40
30.000000000
 50
182.999103644
 51
236.948328362
  0
LINE
  8
PLAIN_
  6
SOLID
 62
     7
 10
591.599634390
 20
79.530817992
 30
0.000000000
 11
648.758237639
 21
94.846419574
 31
0.000000000
  0
ARC
  8
PLAIN_
  6
SOLID
 62
     7
 10
671.935203671
 20
21.821101839
 30
0.000000000
 40
10.000000000
 50
290.999109241
 51
7.182259974
  0
ARC
  8
PLAIN_
  6
SOLID
 62
     7
 10
583.835073225
 20
108.508502947
 30
0.000000000
 40
30.000000000
 50
231.051533773
 51
284.999994404
  0
ARC
  8
PLAIN_
  6
SOLID
 62
     7
 10
529.142180752
 20
173.974549359
 30
0.000000000
 40
10.000000000
 50
2.999109241
 51
79.182261159
  0
ARC
  8
PLAIN_
  6
CENTER
 62
     7
 10
495.827896118
 20
-0.371238708
 30
0.000000000
 40
135.000000000
 50
189.677709163
 51
231.702685145
  0
ARC
  8
PLAIN_
  6
SOLID
 62
     7
 10
651.346523763
 20
85.187307985
 30
0.000000000
 40
10.000000000
 50
28.817333478
 51
105.000000001
  0
LINE
  8
PLAIN_
  6
SOLID
 62
     7
 10
620.274407930
 20
-8.720211311
 30
0.000000000
 11
675.518694369
 21
12.485097980
 31
0.000000000
  0
ARC
  8
PLAIN_
  6
SOLID
 62
     7
 10
631.025012418
 20
-36.727757567
 30
0.000000000
 40
30.000000000
 50
110.999111237
 51
164.948335954
  0
ARC
  8
PLAIN_
  6
SOLID
 62
     7
 10
571.354156869
 20
-161.001156857
 30
0.000000000
 40
10.000000000
 50
218.999109241
 51
295.182257978
  0
ARC
  8
PLAIN_
  6
SOLID
 62
     7
 10
625.256749517
 20
-121.838925978
 30
0.000000000
 40
10.000000000
 50
316.817331483
 51
33.000000001
  0
ARC
  8
PLAIN_
  6
SOLID
 62
     7
 10
462.515085500
 20
173.974784361
 30
0.000000000
 40
10.000000000
 50
100.817334663
 51
177.000000001
  0
LINE
  8
PLAIN_
  6
SOLID
 62
     7
 10
163.014395893
 20
7.200015068
 30
0.000000000
 11
166.000047883
 21
8.000018022
 31
0.000000000
  0
LINE
  8
PLAIN_
  6
SOLID
 62
     7
 10
153.843100727
 20
0.000014782
 30
0.000000000
 11
158.000024922
 21
7.200018563
 31
0.000000000
  0
ARC
  8
PLAIN_
  6
SOLID
 62
     7
 10
125.908656052
 20
173.499999523
 30
0.000000000
 40
2.500000000
 50
189.682541820
 51
270.000000000
  0
ARC
  8
PLAIN_
  6
SOLID
 62
     7
 10
196.800021963
 20
10.199997741
 30
0.000000000
 40
1.200000150
 50
270.000017986
 51
0.000000000
  0
ARC
  8
PLAIN_
  6
SOLID
 62
     7
 10
366.398631520
 20
-121.838099944
 30
0.000000000
 40
10.000000000
 50
146.999109241
 51
223.182255563
  0
LINE
  8
PLAIN_
  6
SOLID
 62
     7
 10
601.414345280
 20
-66.764291162
 30
0.000000000
 11
633.643327744
 21
-116.392572077
 31
0.000000000
  0
ARC
  8
PLAIN_
  6
SOLID
 62
     7
 10
420.300941908
 20
-161.000719321
 30
0.000000000
 40
10.000000000
 50
244.817329067
 51
321.000000001
  0
ARC
  8
PLAIN_
  6
SOLID
 62
     7
 10
626.574464221
 20
-50.425086588
 30
0.000000000
 40
30.000000000
 50
159.051541365
 51
213.000001996
  0
ARC
  8
PLAIN_
  6
SOLID
 62
     7
 10
340.310199369
 20
85.188332924
 30
0.000000000
 40
10.000000000
 50
74.999109241
 51
151.182263155
  0
ARC
  8
PLAIN_
  6
SOLID
 62
     7
 10
319.721073358
 20
21.822271725
 30
0.000000000
 40
10.000000000
 50
172.817336659
 51
249.000000001
  0
LINE
  8
PLAIN_
  6
CENTER
 62
     7
 10
525.566713414
 20
-134.513841490
 30
0.000000000
 11
536.219098159
 21
-182.563643871
 31
0.000000000
  0
LINE
  8
PLAIN_
  6
SOLID
 62
     7
 10
-126.749176025
 20
32.069862366
 30
0.000000000
 11
-85.895301950
 21
30.643219652
 31
0.000000000
  0
ARC
  8
PLAIN_
  6
SOLID
 62
     7
 10
-80.000000000
 20
61.509252648
 30
0.000000000
 40
3.000000000
 50
92.000174209
 51
180.000000000
  0
LINE
  8
PLAIN_
  6
SOLID
 62
     7
 10
163.014395893
 20
7.200015068
 30
0.000000000
 11
163.014395893
 21
-7.199985209
 31
0.000000000
  0
LINE
  8
PLAIN_
  6
SOLID
 62
     7
 10
194.338175135
 20
7.200014889
 30
0.000000000
 11
194.338175135
 21
-7.199988439
 31
0.000000000
  0
LINE
  8
PLAIN_
  6
SOLID
 62
     7
 10
194.800040376
 20
8.000014901
 30
0.000000000
 11
194.338159205
 21
7.200013261
 31
0.000000000
  0
LINE
  8
PLAIN_
  6
SOLID
 62
     7
 10
166.000037372
 20
-7.999985218
 30
0.000000000
 11
194.800040424
 21
-7.999985218
 31
0.000000000
  0
LINE
  8
PLAIN_
  6
SOLID
 62
     7
 10
158.000037372
 20
-7.199985504
 30
0.000000000
 11
194.338172138
 21
-7.199985504
 31
0.000000000
  0
LINE
  8
PLAIN_
  6
SOLID
 62
     7
 10
194.800040376
 20
-8.999985352
 30
0.000000000
 11
196.800040406
 21
-8.999985352
 31
0.000000000
  0
LINE
  8
PLAIN_
  6
SOLID
 62
     7
 10
163.014395893
 20
-7.199985504
 30
0.000000000
 11
166.000044566
 21
-7.999987570
 31
0.000000000
  0
ARC
  8
PLAIN_
  6
SOLID
 62
     7
 10
495.828078949
 20
-0.371031278
 30
0.000000000
 40
110.000000000
 50
17.999994489
 51
89.999996493
  0
LINE
  8
PLAIN_
  6
SOLID
 62
     7
 10
-80.104707606
 20
64.507424811
 30
0.000000000
 11
-66.289886420
 21
64.989891052
 31
0.000000000
  0
LINE
  8
PLAIN_
  6
SOLID
 62
     7
 10
-83.000000000
 20
-1.080734253
 30
0.000000000
 11
-83.000000000
 21
27.645047156
 31
0.000000000
  0
ARC
  8
PLAIN_
  6
SOLID
 62
     7
 10
196.800021963
 20
-10.200004798
 30
0.000000000
 40
1.200000150
 50
0.000000000
 51
89.999982014
  0
LINE
  8
PLAIN_
  6
SOLID
 62
     7
 10
153.843100727
 20
0.000014782
 30
0.000000000
 11
158.000023397
 21
-7.199986356
 31
0.000000000
  0
LINE
  8
PLAIN_
  6
SOLID
 62
     7
 10
194.338175135
 20
-7.199985325
 30
0.000000000
 11
194.800063888
 21
-8.000000098
 31
0.000000000
  0
LINE
  8
PLAIN_
  6
SOLID
 62
     7
 10
192.999991775
 20
-19.700001240
 30
0.000000000
 11
195.999991596
 21
-16.700001419
 31
0.000000000
  0
LINE
  8
PLAIN_
  6
SOLID
 62
     7
 10
197.499991596
 20
-16.500000477
 30
0.000000000
 11
197.999991596
 21
-16.000000477
 31
0.000000000
  0
LINE
  8
PLAIN_
  6
SOLID
 62
     7
 10
197.499991775
 20
-16.500000477
 30
0.000000000
 11
195.999991775
 21
-16.500000477
 31
0.000000000
  0
ARC
  8
PLAIN_
  6
SOLID
 62
     7
 10
-86.000000000
 20
57.301766949
 30
0.000000000
 40
3.000000000
 50
272.000000333
 51
0.000000000
  0
LINE
  8
PLAIN_
  6
SOLID
 62
     7
 10
197.999991596
 20
-0.000011921
 30
0.000000000
 11
197.999991596
 21
-16.000000477
 31
0.000000000
  0
ARC
  8
PLAIN_
  6
SOLID
 62
     7
 10
495.828116782
 20
-0.371172034
 30
0.000000000
 40
110.000000000
 50
305.999992493
 51
17.999994497
  0
LINE
  8
PLAIN_
  6
SOLID
 62
     7
 10
-83.000000000
 20
57.301766949
 30
0.000000000
 11
-83.000000000
 21
61.509252648
 31
0.000000000
  0
LINE
  8
PLAIN_
  6
SOLID
 62
     7
 10
-126.749176025
 20
52.876945496
 30
0.000000000
 11
-85.895301492
 21
54.303594469
 31
0.000000000
  0
LINE
  8
PLAIN_
  6
CENTER
 62
     7
 10
-133.430138491
 20
-52.500000000
 30
0.000000000
 11
-142.642608643
 21
-52.500000000
 31
0.000000000
  0
LINE
  8
PLAIN_
  6
CENTER
 62
     7
 10
-113.230867643
 20
-53.000000000
 30
0.000000000
 11
-122.918919179
 21
-53.000000000
 31
0.000000000
  0
LINE
  8
PLAIN_
  6
SOLID
 62
     7
 10
195.999991596
 20
-16.700001240
 30
0.000000000
 11
149.999991596
 21
-16.700001240
 31
0.000000000
  0
LINE
  8
PLAIN_
  6
L_DASH
 62
     7
 10
136.000003815
 20
-19.700001240
 30
0.000000000
 11
131.999991596
 21
-19.700001240
 31
0.000000000
  0
LINE
  8
PLAIN_
  6
CENTER
 62
     7
 10
-119.000000000
 20
-59.913506086
 30
0.000000000
 11
-119.000000000
 21
-47.312707030
 31
0.000000000
  0
LINE
  8
PLAIN_
  6
SOLID
 62
     7
 10
367.771901611
 20
96.304401270
 30
0.000000000
 11
361.421048650
 21
107.304401270
 31
0.000000000
  0
LINE
  8
PLAIN_
  6
L_DASH
 62
     7
 10
-134.061141968
 20
-55.362503052
 30
0.000000000
 11
-139.000030518
 21
-55.362503052
 31
0.000000000
  0
LINE
  8
PLAIN_
  6
CENTER
 62
     7
 10
149.999991596
 20
-11.347381115
 30
0.000000000
 11
149.999991596
 21
-24.876890659
 31
0.000000000
  0
ARC
  8
PLAIN_
  6
SOLID
 62
     7
 10
495.827988799
 20
-0.371253363
 30
0.000000000
 40
110.000000000
 50
229.271559100
 51
305.999992081
  0
LINE
  8
PLAIN_
  6
SOLID
 62
     7
 10
-134.061141968
 20
-61.500000000
 30
0.000000000
 11
-138.000030518
 21
-61.500000000
 31
0.000000000
  0
LINE
  8
PLAIN_
  6
L_DASH
 62
     7
 10
-134.061141968
 20
-58.224990845
 30
0.000000000
 11
-139.000030518
 21
-58.224990845
 31
0.000000000
  0
LINE
  8
PLAIN_
  6
L_DASH
 62
     7
 10
-134.061141968
 20
-46.775009155
 30
0.000000000
 11
-139.000030518
 21
-46.775009155
 31
0.000000000
  0
LINE
  8
PLAIN_
  6
SOLID
 62
     7
 10
361.421048650
 20
107.304401270
 30
0.000000000
 11
367.771901611
 21
118.304401270
 31
0.000000000
  0
LINE
  8
PLAIN_
  6
L_DASH
 62
     7
 10
-134.061141968
 20
-49.637496948
 30
0.000000000
 11
-139.000030518
 21
-49.637496948
 31
0.000000000
  0
LINE
  8
PLAIN_
  6
SOLID
 62
     7
 10
192.999991775
 20
-19.700001240
 30
0.000000000
 11
136.000003815
 21
-19.700001240
 31
0.000000000
  0
ARC
  8
PLAIN_
  6
SOLID
 62
     7
 10
149.999991596
 20
-51.700001240
 30
0.000000000
 40
35.000000000
 50
89.999960304
 51
113.895468490
  0
ARC
  8
PLAIN_
  6
SOLID
 62
     7
 10
495.828010310
 20
-0.371112643
 30
0.000000000
 40
110.000000000
 50
161.999997670
 51
215.898006972
  0
LINE
  8
PLAIN_
  6
SOLID
 62
     7
 10
-134.061141968
 20
-43.500000000
 30
0.000000000
 11
-138.000030518
 21
-43.500000000
 31
0.000000000
  0
LINE
  8
PLAIN_
  6
SOLID
 62
     7
 10
126.000003815
 20
170.999997139
 30
0.000000000
 11
126.000003815
 21
-0.000000477
 31
0.000000000
  0
LINE
  8
PLAIN_
  6
SOLID
 62
     7
 10
13.000003815
 20
189.899945259
 30
0.000000000
 11
1.000032663
 21
189.899945259
 31
0.000000000
  0
CIRCLE
  8
PLAIN_
  6
SOLID
 62
     7
 10
374.122754572
 20
107.304401270
 30
0.000000000
 40
11.000000000
  0
ARC
  8
PLAIN_
  6
SOLID
 62
     7
 10
495.828060969
 20
-0.371028677
 30
0.000000000
 40
171.000000000
 50
119.018993527
 51
122.647456524
  0
LINE
  8
PLAIN_
  6
SOLID
 62
     7
 10
49.201379069
 20
-125.274598626
 30
0.000000000
 11
102.921503483
 21
-123.867887584
 31
0.000000000
  0
ARC
  8
PLAIN_
  6
SOLID
 62
     7
 10
495.828018188
 20
-0.371131897
 30
0.000000000
 40
110.000000000
 50
89.999995674
 51
161.999997678
  0
LINE
  8
PLAIN_
  6
SOLID
 62
     7
 10
192.799990833
 20
19.700000286
 30
0.000000000
 11
136.000003815
 21
19.700000286
 31
0.000000000
  0
LINE
  8
PLAIN_
  6
SOLID
 62
     7
 10
-17.665881579
 20
187.334080751
 30
0.000000000
 11
-17.665881579
 21
-187.408356599
 31
0.000000000
  0
LINE
  8
PLAIN_
  6
SOLID
 62
     7
 10
0.000003815
 20
188.899945259
 30
0.000000000
 11
0.000003815
 21
-189.000002861
 31
0.000000000
  0
LINE
  8
PLAIN_
  6
CENTER
 62
     7
 10
495.828079224
 20
-200.159795761
 30
0.000000000
 11
495.828079224
 21
194.778055191
 31
0.000000000
  0
LINE
  8
PLAIN_
  6
CENTER
 62
     7
 10
296.446350098
 20
-0.371030807
 30
0.000000000
 11
702.210891724
 21
-0.371030807
 31
0.000000000
  0
LINE
  8
PLAIN_
  6
SOLID
 62
     7
 10
15.654681607
 20
187.245267467
 30
0.000000000
 11
15.654681607
 21
-187.500000477
 31
0.000000000
  0
ENDSEC
  0
EOF
