  0
SECTION
  2
HEADER
  9
$SPLINETYPE
 70
     6
  9
$FILLMODE
 70
     1
  9
$LTSCALE
 40
1.000000000
  0
ENDSEC
  0
SECTION
  2
TABLES
  0
TABLE
  2
LTYPE
 70
     8
  0
LTYPE
  2
SOLID
 70
    64
  3

 72
    65
 73
     0
 40
0.000000000
  0
LTYPE
  2
DASH
 70
    64
  3

 72
    65
 73
     3
 40
3.500000000
 49
1.500000000
 49
-1.500000000
 49
0.500000000
  0
LTYPE
  2
CENTER
 70
    64
  3

 72
    65
 73
     4
 40
8.000000000
 49
4.500000000
 49
-1.500000000
 49
0.500000000
 49
-1.500000000
  0
LTYPE
  2
L_DASH
 70
    64
  3

 72
    65
 73
     1
 40
0.500000000
 49
0.500000000
  0
LTYPE
  2
FONT_5
 70
    64
  3

 72
    65
 73
     8
 40
9.000000000
 49
0.500000000
 49
-2.500000000
 49
0.500000000
 49
-1.500000000
 49
0.500000000
 49
-1.500000000
 49
0.500000000
 49
-1.500000000
  0
LTYPE
  2
FONT_6
 70
    64
  3

 72
    65
 73
    11
 40
8.000000000
 49
0.500000000
 49
-1.000000000
 49
0.500000000
 49
-1.000000000
 49
0.500000000
 49
-1.000000000
 49
0.500000000
 49
-1.000000000
 49
0.500000000
 49
-1.000000000
 49
0.500000000
  0
LTYPE
  2
FONT_7
 70
    64
  3

 72
    65
 73
     4
 40
8.000000000
 49
1.000000000
 49
-5.000000000
 49
1.000000000
 49
-1.000000000
  0
LTYPE
  2
FONT_8
 70
    64
  3

 72
    65
 73
     4
 40
8.000000000
 49
1.000000000
 49
-5.000000000
 49
1.000000000
 49
-1.000000000
  0
ENDTAB
  0
TABLE
  2
LAYER
 70
     1
  0
LAYER
  2
PLAIN_
 70
    64
 62
     7
  6
SOLID
  0
ENDTAB
  0
TABLE
  2
STYLE
 70
     0
  0
STYLE
  2
STANDARD
 70
    64
 40
0.000000000
 41
1.000000000
 50
0.000000000
 71
     0
 42
0.000000000
  3
txt.shx
  4

  0
ENDTAB
  0
TABLE
  2
UCS
 70
     0
  0
ENDTAB
  0
ENDSEC
  0
SECTION
  2
BLOCKS
  0
BLOCK
  2
*H1
  8
PLAIN_
 70
    65
 10
0.000000000
 20
0.000000000
 30
0.000000000
  3
*H1
  0
LINE
  8
PLAIN_
  6
SOLID
 62
     7
 10
227.299743652
 20
-16.747985840
 30
0.000000000
 11
230.499969482
 21
-13.547759056
 31
0.000000000
  0
LINE
  8
PLAIN_
  6
SOLID
 62
     7
 10
225.809722900
 20
-9.752745628
 30
0.000000000
 11
216.482696533
 21
-19.079742432
 31
0.000000000
  0
LINE
  8
PLAIN_
  6
SOLID
 62
     7
 10
207.122863770
 20
-19.954315186
 30
0.000000000
 11
218.189208984
 21
-8.887969017
 31
0.000000000
  0
LINE
  8
PLAIN_
  6
SOLID
 62
     7
 10
229.146423340
 20
10.554535866
 30
0.000000000
 11
229.096923828
 21
10.505036354
 31
0.000000000
  0
LINE
  8
PLAIN_
  6
SOLID
 62
     7
 10
209.703918457
 20
-8.887969017
 30
0.000000000
 11
200.319366455
 21
-18.272521973
 31
0.000000000
  0
LINE
  8
PLAIN_
  6
SOLID
 62
     7
 10
192.958404541
 20
-17.148223877
 30
0.000000000
 11
201.218627930
 21
-8.887969017
 31
0.000000000
  0
LINE
  8
PLAIN_
  6
SOLID
 62
     7
 10
218.994628906
 20
8.888031960
 30
0.000000000
 11
224.856109619
 21
14.749512672
 31
0.000000000
  0
LINE
  8
PLAIN_
  6
SOLID
 62
     7
 10
218.246826172
 20
16.625518799
 30
0.000000000
 11
210.509368896
 21
8.888031960
 31
0.000000000
  0
LINE
  8
PLAIN_
  6
SOLID
 62
     7
 10
192.733367920
 20
-8.887969017
 30
0.000000000
 11
178.412994385
 21
-23.208343506
 31
0.000000000
  0
LINE
  8
PLAIN_
  6
SOLID
 62
     7
 10
171.720153809
 20
-21.415893555
 30
0.000000000
 11
185.041748047
 21
-8.094298363
 31
0.000000000
  0
LINE
  8
PLAIN_
  6
SOLID
 62
     7
 10
202.024078369
 20
8.888031960
 30
0.000000000
 11
211.142730713
 21
18.006683350
 31
0.000000000
  0
LINE
  8
PLAIN_
  6
SOLID
 62
     7
 10
202.647521973
 20
17.996734619
 30
0.000000000
 11
193.538787842
 21
8.888031960
 31
0.000000000
  0
LINE
  8
PLAIN_
  6
SOLID
 62
     7
 10
181.935913086
 20
-2.714842796
 30
0.000000000
 11
171.973388672
 21
-12.677397728
 31
0.000000000
  0
LINE
  8
PLAIN_
  6
SOLID
 62
     7
 10
168.408966064
 20
-7.756529808
 30
0.000000000
 11
190.558380127
 21
14.392884254
 31
0.000000000
  0
LINE
  8
PLAIN_
  6
SOLID
 62
     7
 10
182.578430176
 20
14.898224831
 30
0.000000000
 11
165.452941895
 21
-2.227293968
 31
0.000000000
  0
LINE
  8
PLAIN_
  6
SOLID
 62
     7
 10
170.533843994
 20
11.338929176
 30
0.000000000
 11
174.401397705
 21
15.206482887
 31
0.000000000
  0
ENDBLK
  0
BLOCK
  2
*L1
  8
PLAIN_
 70
    65
 10
0.000000000
 20
0.000000000
 30
0.000000000
  3
*L1
  0
LINE
  8
PLAIN_
  6
SOLID
 62
     7
 10
140.916839600
 20
-168.520751953
 30
0.000000000
 11
154.252639771
 21
-190.192352295
 31
0.000000000
  0
LINE
  8
PLAIN_
  6
SOLID
 62
     7
 10
154.252639771
 20
-190.192352295
 30
0.000000000
 11
169.256332397
 21
-190.192352295
 31
0.000000000
  0
LINE
  8
PLAIN_
  6
SOLID
 62
     7
 10
147.576965332
 20
-176.164047241
 30
0.000000000
 11
140.916839600
 21
-168.520751953
 31
0.000000000
  0
LINE
  8
PLAIN_
  6
SOLID
 62
     7
 10
140.916839600
 20
-168.520751953
 30
0.000000000
 11
144.738342285
 21
-177.910812378
 31
0.000000000
  0
LINE
  8
PLAIN_
  6
SOLID
 62
     7
 10
144.738342285
 20
-177.910812378
 30
0.000000000
 11
147.576965332
 21
-176.164047241
 31
0.000000000
  0
TEXT
  8
PLAIN_
  6
SOLID
 62
     7
 10
174.256332397
 20
-195.192352295
 30
0.000000000
 40
10.000000000
  1
MOUNTIG FLAGE
 50
0.000000000
 41
0.860153726
  0
ENDBLK
  0
BLOCK
  2
*D1
  8
PLAIN_
 70
    65
 10
0.000000000
 20
0.000000000
 30
0.000000000
  3
*D1
  0
LINE
  8
PLAIN_
  6
SOLID
 62
     7
 10
140.499938965
 20
155.087707520
 30
0.000000000
 11
140.499938965
 21
149.216079712
 31
0.000000000
  0
LINE
  8
PLAIN_
  6
SOLID
 62
     7
 10
150.499938965
 20
136.499938965
 30
0.000000000
 11
150.499938965
 21
159.216079712
 31
0.000000000
  0
LINE
  8
PLAIN_
  6
SOLID
 62
     7
 10
140.499938965
 20
154.216079712
 30
0.000000000
 11
122.499938965
 21
154.216079712
 31
0.000000000
  0
LINE
  8
PLAIN_
  6
SOLID
 62
     7
 10
122.499938965
 20
154.216079712
 30
0.000000000
 11
197.257583618
 21
154.216079712
 31
0.000000000
  0
LINE
  8
PLAIN_
  6
SOLID
 62
     7
 10
128.499938965
 20
152.216278076
 30
0.000000000
 11
140.499938965
 21
154.216079712
 31
0.000000000
  0
LINE
  8
PLAIN_
  6
SOLID
 62
     7
 10
140.499938965
 20
154.216079712
 30
0.000000000
 11
128.499938965
 21
156.215881348
 31
0.000000000
  0
LINE
  8
PLAIN_
  6
SOLID
 62
     7
 10
128.499938965
 20
156.215881348
 30
0.000000000
 11
128.499938965
 21
152.216278076
 31
0.000000000
  0
LINE
  8
PLAIN_
  6
SOLID
 62
     7
 10
150.499938965
 20
154.216079712
 30
0.000000000
 11
197.257583618
 21
154.216079712
 31
0.000000000
  0
LINE
  8
PLAIN_
  6
SOLID
 62
     7
 10
197.257583618
 20
154.216079712
 30
0.000000000
 11
122.499938965
 21
154.216079712
 31
0.000000000
  0
LINE
  8
PLAIN_
  6
SOLID
 62
     7
 10
162.499938965
 20
156.215881348
 30
0.000000000
 11
150.499938965
 21
154.216079712
 31
0.000000000
  0
LINE
  8
PLAIN_
  6
SOLID
 62
     7
 10
150.499938965
 20
154.216079712
 30
0.000000000
 11
162.499938965
 21
152.216278076
 31
0.000000000
  0
LINE
  8
PLAIN_
  6
SOLID
 62
     7
 10
162.499938965
 20
152.216278076
 30
0.000000000
 11
162.499938965
 21
156.215881348
 31
0.000000000
  0
TEXT
  8
PLAIN_
  6
SOLID
 62
     7
 10
174.360046387
 20
160.216079712
 30
0.000000000
 40
12.000000000
  1
10
 50
0.000000000
 41
0.733230750
  0
ENDBLK
  0
BLOCK
  2
*D2
  8
PLAIN_
 70
    65
 10
0.000000000
 20
0.000000000
 30
0.000000000
  3
*D2
  0
LINE
  8
PLAIN_
  6
SOLID
 62
     7
 10
-38.000007629
 20
-163.601638794
 30
0.000000000
 11
-38.000003815
 21
-245.289154053
 31
0.000000000
  0
LINE
  8
PLAIN_
  6
SOLID
 62
     7
 10
140.499938965
 20
-185.576171875
 30
0.000000000
 11
140.499938965
 21
-245.289154053
 31
0.000000000
  0
LINE
  8
PLAIN_
  6
SOLID
 62
     7
 10
-38.000003815
 20
-240.289154053
 30
0.000000000
 11
140.499938965
 21
-240.289154053
 31
0.000000000
  0
LINE
  8
PLAIN_
  6
SOLID
 62
     7
 10
-26.000007629
 20
-238.289352417
 30
0.000000000
 11
-38.000003815
 21
-240.289154053
 31
0.000000000
  0
LINE
  8
PLAIN_
  6
SOLID
 62
     7
 10
-38.000003815
 20
-240.289154053
 30
0.000000000
 11
-26.000007629
 21
-242.288955688
 31
0.000000000
  0
LINE
  8
PLAIN_
  6
SOLID
 62
     7
 10
-26.000007629
 20
-242.288955688
 30
0.000000000
 11
-26.000007629
 21
-238.289352417
 31
0.000000000
  0
LINE
  8
PLAIN_
  6
SOLID
 62
     7
 10
140.499938965
 20
-240.289154053
 30
0.000000000
 11
-38.000003815
 21
-240.289154053
 31
0.000000000
  0
LINE
  8
PLAIN_
  6
SOLID
 62
     7
 10
128.499938965
 20
-242.288955688
 30
0.000000000
 11
140.499938965
 21
-240.289154053
 31
0.000000000
  0
LINE
  8
PLAIN_
  6
SOLID
 62
     7
 10
140.499938965
 20
-240.289154053
 30
0.000000000
 11
128.499938965
 21
-238.289352417
 31
0.000000000
  0
LINE
  8
PLAIN_
  6
SOLID
 62
     7
 10
128.499938965
 20
-238.289352417
 30
0.000000000
 11
128.499938965
 21
-242.288955688
 31
0.000000000
  0
TEXT
  8
PLAIN_
  6
SOLID
 62
     7
 10
23.862567902
 20
-234.289154053
 30
0.000000000
 40
12.000000000
  1
178.5
 50
0.000000000
 41
0.823230743
  0
ENDBLK
  0
BLOCK
  2
*D3
  8
PLAIN_
 70
    65
 10
0.000000000
 20
0.000000000
 30
0.000000000
  3
*D3
  0
LINE
  8
PLAIN_
  6
SOLID
 62
     7
 10
-5.999938965
 20
-204.999969482
 30
0.000000000
 11
-214.862609863
 21
-204.999969482
 31
0.000000000
  0
LINE
  8
PLAIN_
  6
SOLID
 62
     7
 10
-6.000000000
 20
204.999938965
 30
0.000000000
 11
-214.862609863
 21
204.999938965
 31
0.000000000
  0
LINE
  8
PLAIN_
  6
SOLID
 62
     7
 10
-209.862609863
 20
-204.999969482
 30
0.000000000
 11
-209.862609863
 21
204.999938965
 31
0.000000000
  0
LINE
  8
PLAIN_
  6
SOLID
 62
     7
 10
-211.862411499
 20
-192.999954224
 30
0.000000000
 11
-209.862609863
 21
-204.999969482
 31
0.000000000
  0
LINE
  8
PLAIN_
  6
SOLID
 62
     7
 10
-209.862609863
 20
-204.999969482
 30
0.000000000
 11
-207.862808228
 21
-192.999954224
 31
0.000000000
  0
LINE
  8
PLAIN_
  6
SOLID
 62
     7
 10
-207.862808228
 20
-192.999954224
 30
0.000000000
 11
-211.862411499
 21
-192.999954224
 31
0.000000000
  0
LINE
  8
PLAIN_
  6
SOLID
 62
     7
 10
-209.862609863
 20
204.999938965
 30
0.000000000
 11
-209.862609863
 21
-204.999969482
 31
0.000000000
  0
LINE
  8
PLAIN_
  6
SOLID
 62
     7
 10
-207.862808228
 20
192.999923706
 30
0.000000000
 11
-209.862609863
 21
204.999938965
 31
0.000000000
  0
LINE
  8
PLAIN_
  6
SOLID
 62
     7
 10
-209.862609863
 20
204.999938965
 30
0.000000000
 11
-211.862411499
 21
192.999923706
 31
0.000000000
  0
LINE
  8
PLAIN_
  6
SOLID
 62
     7
 10
-211.862411499
 20
192.999923706
 30
0.000000000
 11
-207.862808228
 21
192.999923706
 31
0.000000000
  0
TEXT
  8
PLAIN_
  6
SOLID
 62
     7
 10
-215.862609863
 20
-26.656694412
 30
0.000000000
 40
12.000000000
  1
%%c
 50
90.000002504
 41
0.666615407
  0
TEXT
  8
PLAIN_
  6
SOLID
 62
     7
 10
-215.862609863
 20
-16.056697845
 30
0.000000000
 40
12.000000000
  1
410
 50
90.000002504
 41
0.783230782
  0
TEXT
  8
PLAIN_
  6
SOLID
 62
     7
 10
-219.462615967
 20
19.343290329
 30
0.000000000
 40
8.399999619
  1
%%p1
 50
90.000002504
 41
0.608230743
  0
ENDBLK
  0
BLOCK
  2
*D4
  8
PLAIN_
 70
    65
 10
0.000000000
 20
0.000000000
 30
0.000000000
  3
*D4
  0
LINE
  8
PLAIN_
  6
SOLID
 62
     7
 10
774.909667969
 20
45.960880280
 30
0.000000000
 11
635.172485352
 21
-1.259613514
 31
0.000000000
  0
LINE
  8
PLAIN_
  6
SOLID
 62
     7
 10
764.181396484
 20
40.224662781
 30
0.000000000
 11
774.909667969
 21
45.960880280
 31
0.000000000
  0
LINE
  8
PLAIN_
  6
SOLID
 62
     7
 10
774.909667969
 20
45.960880280
 30
0.000000000
 11
762.901000977
 21
44.013763428
 31
0.000000000
  0
LINE
  8
PLAIN_
  6
SOLID
 62
     7
 10
762.901000977
 20
44.013763428
 30
0.000000000
 11
764.181396484
 21
40.224662781
 31
0.000000000
  0
LINE
  8
PLAIN_
  6
SOLID
 62
     7
 10
504.909057617
 20
-45.278717041
 30
0.000000000
 11
774.909667969
 21
45.960880280
 31
0.000000000
  0
TEXT
  8
PLAIN_
  6
SOLID
 62
     7
 10
718.197326660
 20
33.129760742
 30
0.000000000
 40
12.000000000
  1
%%c
 50
18.671327842
 41
0.666615407
  0
TEXT
  8
PLAIN_
  6
SOLID
 62
     7
 10
728.239440918
 20
36.523231506
 30
0.000000000
 40
12.000000000
  1
285
 50
18.671327842
 41
0.783230782
  0
ENDBLK
  0
BLOCK
  2
*D5
  8
PLAIN_
 70
    65
 10
0.000000000
 20
0.000000000
 30
0.000000000
  3
*D5
  0
LINE
  8
PLAIN_
  6
SOLID
 62
     7
 10
-147.500030518
 20
21.000000000
 30
0.000000000
 11
-147.500030518
 21
267.987609863
 31
0.000000000
  0
LINE
  8
PLAIN_
  6
SOLID
 62
     7
 10
140.499938965
 20
165.087707520
 30
0.000000000
 11
140.499938965
 21
267.987609863
 31
0.000000000
  0
LINE
  8
PLAIN_
  6
SOLID
 62
     7
 10
-147.500030518
 20
262.987609863
 30
0.000000000
 11
140.499938965
 21
262.987609863
 31
0.000000000
  0
LINE
  8
PLAIN_
  6
SOLID
 62
     7
 10
-135.500030518
 20
264.987396240
 30
0.000000000
 11
-147.500030518
 21
262.987609863
 31
0.000000000
  0
LINE
  8
PLAIN_
  6
SOLID
 62
     7
 10
-147.500030518
 20
262.987609863
 30
0.000000000
 11
-135.500030518
 21
260.987823486
 31
0.000000000
  0
LINE
  8
PLAIN_
  6
SOLID
 62
     7
 10
-135.500030518
 20
260.987823486
 30
0.000000000
 11
-135.500030518
 21
264.987396240
 31
0.000000000
  0
LINE
  8
PLAIN_
  6
SOLID
 62
     7
 10
140.499938965
 20
262.987609863
 30
0.000000000
 11
-147.500030518
 21
262.987609863
 31
0.000000000
  0
LINE
  8
PLAIN_
  6
SOLID
 62
     7
 10
128.499938965
 20
260.987823486
 30
0.000000000
 11
140.499938965
 21
262.987609863
 31
0.000000000
  0
LINE
  8
PLAIN_
  6
SOLID
 62
     7
 10
140.499938965
 20
262.987609863
 30
0.000000000
 11
128.499938965
 21
264.987396240
 31
0.000000000
  0
LINE
  8
PLAIN_
  6
SOLID
 62
     7
 10
128.499938965
 20
264.987396240
 30
0.000000000
 11
128.499938965
 21
260.987823486
 31
0.000000000
  0
TEXT
  8
PLAIN_
  6
SOLID
 62
     7
 10
-27.935869217
 20
268.987609863
 30
0.000000000
 40
12.000000000
  1
288
 50
0.000000000
 41
0.807692316
  0
ENDBLK
  0
BLOCK
  2
*D6
  8
PLAIN_
 70
    65
 10
0.000000000
 20
0.000000000
 30
0.000000000
  3
*D6
  0
LINE
  8
PLAIN_
  6
SOLID
 62
     7
 10
169.499984741
 20
45.488922119
 30
0.000000000
 11
169.499984741
 21
89.928771973
 31
0.000000000
  0
LINE
  8
PLAIN_
  6
SOLID
 62
     7
 10
230.499984741
 20
33.000003815
 30
0.000000000
 11
230.499984741
 21
89.928771973
 31
0.000000000
  0
LINE
  8
PLAIN_
  6
SOLID
 62
     7
 10
169.499984741
 20
84.928771973
 30
0.000000000
 11
230.499984741
 21
84.928771973
 31
0.000000000
  0
LINE
  8
PLAIN_
  6
SOLID
 62
     7
 10
181.499984741
 20
86.928573608
 30
0.000000000
 11
169.499984741
 21
84.928771973
 31
0.000000000
  0
LINE
  8
PLAIN_
  6
SOLID
 62
     7
 10
169.499984741
 20
84.928771973
 30
0.000000000
 11
181.499984741
 21
82.928970337
 31
0.000000000
  0
LINE
  8
PLAIN_
  6
SOLID
 62
     7
 10
181.499984741
 20
82.928970337
 30
0.000000000
 11
181.499984741
 21
86.928573608
 31
0.000000000
  0
LINE
  8
PLAIN_
  6
SOLID
 62
     7
 10
230.499984741
 20
84.928771973
 30
0.000000000
 11
169.499984741
 21
84.928771973
 31
0.000000000
  0
LINE
  8
PLAIN_
  6
SOLID
 62
     7
 10
218.499984741
 20
82.928970337
 30
0.000000000
 11
230.499984741
 21
84.928771973
 31
0.000000000
  0
LINE
  8
PLAIN_
  6
SOLID
 62
     7
 10
230.499984741
 20
84.928771973
 30
0.000000000
 11
218.499984741
 21
86.928573608
 31
0.000000000
  0
LINE
  8
PLAIN_
  6
SOLID
 62
     7
 10
218.499984741
 20
86.928573608
 30
0.000000000
 11
218.499984741
 21
82.928970337
 31
0.000000000
  0
TEXT
  8
PLAIN_
  6
SOLID
 62
     7
 10
180.478027344
 20
90.928771973
 30
0.000000000
 40
12.000000000
  1
61
 50
0.000000000
 41
0.608230790
  0
TEXT
  8
PLAIN_
  6
SOLID
 62
     7
 10
205.278030396
 20
103.528770447
 30
0.000000000
 40
8.399999619
  1
+0
 50
0.000000000
 41
0.733230772
  0
TEXT
  8
PLAIN_
  6
SOLID
 62
     7
 10
205.278030396
 20
85.528770447
 30
0.000000000
 40
8.399999619
  1
-1
 50
0.000000000
 41
0.608230743
  0
ENDBLK
  0
BLOCK
  2
*D7
  8
PLAIN_
 70
    65
 10
0.000000000
 20
0.000000000
 30
0.000000000
  3
*D7
  0
LINE
  8
PLAIN_
  6
SOLID
 62
     7
 10
-147.500030518
 20
21.000000000
 30
0.000000000
 11
-147.500030518
 21
300.374542236
 31
0.000000000
  0
LINE
  8
PLAIN_
  6
SOLID
 62
     7
 10
230.499984741
 20
33.000003815
 30
0.000000000
 11
230.499969482
 21
300.374542236
 31
0.000000000
  0
LINE
  8
PLAIN_
  6
SOLID
 62
     7
 10
-147.500030518
 20
295.374542236
 30
0.000000000
 11
230.499969482
 21
295.374542236
 31
0.000000000
  0
LINE
  8
PLAIN_
  6
SOLID
 62
     7
 10
-135.500030518
 20
297.374328613
 30
0.000000000
 11
-147.500030518
 21
295.374542236
 31
0.000000000
  0
LINE
  8
PLAIN_
  6
SOLID
 62
     7
 10
-147.500030518
 20
295.374542236
 30
0.000000000
 11
-135.500030518
 21
293.374755859
 31
0.000000000
  0
LINE
  8
PLAIN_
  6
SOLID
 62
     7
 10
-135.500030518
 20
293.374755859
 30
0.000000000
 11
-135.500030518
 21
297.374328613
 31
0.000000000
  0
LINE
  8
PLAIN_
  6
SOLID
 62
     7
 10
230.499969482
 20
295.374542236
 30
0.000000000
 11
-147.500030518
 21
295.374542236
 31
0.000000000
  0
LINE
  8
PLAIN_
  6
SOLID
 62
     7
 10
218.499969482
 20
293.374755859
 30
0.000000000
 11
230.499969482
 21
295.374542236
 31
0.000000000
  0
LINE
  8
PLAIN_
  6
SOLID
 62
     7
 10
230.499969482
 20
295.374542236
 30
0.000000000
 11
218.499969482
 21
297.374328613
 31
0.000000000
  0
LINE
  8
PLAIN_
  6
SOLID
 62
     7
 10
218.499969482
 20
297.374328613
 30
0.000000000
 11
218.499969482
 21
293.374755859
 31
0.000000000
  0
TEXT
  8
PLAIN_
  6
SOLID
 62
     7
 10
19.691984177
 20
301.374542236
 30
0.000000000
 40
12.000000000
  1
378
 50
0.000000000
 41
0.807692316
  0
ENDBLK
  0
BLOCK
  2
*D8
  8
PLAIN_
 70
    65
 10
0.000000000
 20
0.000000000
 30
0.000000000
  3
*D8
  0
LINE
  8
PLAIN_
  6
SOLID
 62
     7
 10
140.499938965
 20
165.087707520
 30
0.000000000
 11
140.499938965
 21
237.505767822
 31
0.000000000
  0
LINE
  8
PLAIN_
  6
SOLID
 62
     7
 10
230.499984741
 20
33.000003815
 30
0.000000000
 11
230.499984741
 21
237.505767822
 31
0.000000000
  0
LINE
  8
PLAIN_
  6
SOLID
 62
     7
 10
140.499938965
 20
232.505767822
 30
0.000000000
 11
230.499984741
 21
232.505767822
 31
0.000000000
  0
LINE
  8
PLAIN_
  6
SOLID
 62
     7
 10
152.499938965
 20
234.505569458
 30
0.000000000
 11
140.499938965
 21
232.505767822
 31
0.000000000
  0
LINE
  8
PLAIN_
  6
SOLID
 62
     7
 10
140.499938965
 20
232.505767822
 30
0.000000000
 11
152.499938965
 21
230.505966187
 31
0.000000000
  0
LINE
  8
PLAIN_
  6
SOLID
 62
     7
 10
152.499938965
 20
230.505966187
 30
0.000000000
 11
152.499938965
 21
234.505569458
 31
0.000000000
  0
LINE
  8
PLAIN_
  6
SOLID
 62
     7
 10
230.499984741
 20
232.505767822
 30
0.000000000
 11
140.499938965
 21
232.505767822
 31
0.000000000
  0
LINE
  8
PLAIN_
  6
SOLID
 62
     7
 10
218.499984741
 20
230.505966187
 30
0.000000000
 11
230.499984741
 21
232.505767822
 31
0.000000000
  0
LINE
  8
PLAIN_
  6
SOLID
 62
     7
 10
230.499984741
 20
232.505767822
 30
0.000000000
 11
218.499984741
 21
234.505569458
 31
0.000000000
  0
LINE
  8
PLAIN_
  6
SOLID
 62
     7
 10
218.499984741
 20
234.505569458
 30
0.000000000
 11
218.499984741
 21
230.505966187
 31
0.000000000
  0
TEXT
  8
PLAIN_
  6
SOLID
 62
     7
 10
170.085220337
 20
238.505767822
 30
0.000000000
 40
12.000000000
  1
90
 50
0.000000000
 41
0.733230750
  0
TEXT
  8
PLAIN_
  6
SOLID
 62
     7
 10
194.885223389
 20
251.105773926
 30
0.000000000
 40
8.399999619
  1
+1
 50
0.000000000
 41
0.608230743
  0
TEXT
  8
PLAIN_
  6
SOLID
 62
     7
 10
194.885223389
 20
233.105773926
 30
0.000000000
 40
8.399999619
  1
-0
 50
0.000000000
 41
0.733230772
  0
ENDBLK
  0
BLOCK
  2
*D9
  8
PLAIN_
 70
    65
 10
0.000000000
 20
0.000000000
 30
0.000000000
  3
*D9
  0
LINE
  8
PLAIN_
  6
SOLID
 62
     7
 10
-70.500007629
 20
91.500000000
 30
0.000000000
 11
-70.500007629
 21
237.505767822
 31
0.000000000
  0
LINE
  8
PLAIN_
  6
SOLID
 62
     7
 10
140.499938965
 20
165.087707520
 30
0.000000000
 11
140.499938965
 21
237.505767822
 31
0.000000000
  0
LINE
  8
PLAIN_
  6
SOLID
 62
     7
 10
-70.500007629
 20
232.505767822
 30
0.000000000
 11
140.499938965
 21
232.505767822
 31
0.000000000
  0
LINE
  8
PLAIN_
  6
SOLID
 62
     7
 10
-58.500003815
 20
234.505569458
 30
0.000000000
 11
-70.500007629
 21
232.505767822
 31
0.000000000
  0
LINE
  8
PLAIN_
  6
SOLID
 62
     7
 10
-70.500007629
 20
232.505767822
 30
0.000000000
 11
-58.500003815
 21
230.505966187
 31
0.000000000
  0
LINE
  8
PLAIN_
  6
SOLID
 62
     7
 10
-58.500003815
 20
230.505966187
 30
0.000000000
 11
-58.500003815
 21
234.505569458
 31
0.000000000
  0
LINE
  8
PLAIN_
  6
SOLID
 62
     7
 10
140.499938965
 20
232.505767822
 30
0.000000000
 11
-70.500007629
 21
232.505767822
 31
0.000000000
  0
LINE
  8
PLAIN_
  6
SOLID
 62
     7
 10
128.499938965
 20
230.505966187
 30
0.000000000
 11
140.499938965
 21
232.505767822
 31
0.000000000
  0
LINE
  8
PLAIN_
  6
SOLID
 62
     7
 10
140.499938965
 20
232.505767822
 30
0.000000000
 11
128.499938965
 21
234.505569458
 31
0.000000000
  0
LINE
  8
PLAIN_
  6
SOLID
 62
     7
 10
128.499938965
 20
234.505569458
 30
0.000000000
 11
128.499938965
 21
230.505966187
 31
0.000000000
  0
TEXT
  8
PLAIN_
  6
SOLID
 62
     7
 10
19.283147812
 20
238.505767822
 30
0.000000000
 40
12.000000000
  1
211
 50
0.000000000
 41
0.699897448
  0
ENDBLK
  0
BLOCK
  2
*D10
  8
PLAIN_
 70
    65
 10
0.000000000
 20
0.000000000
 30
0.000000000
  3
*D10
  0
LINE
  8
PLAIN_
  6
SOLID
 62
     7
 10
120.499938965
 20
-183.835021973
 30
0.000000000
 11
120.499938965
 21
-215.938827515
 31
0.000000000
  0
LINE
  8
PLAIN_
  6
SOLID
 62
     7
 10
140.499938965
 20
-185.576171875
 30
0.000000000
 11
140.499938965
 21
-215.938827515
 31
0.000000000
  0
LINE
  8
PLAIN_
  6
SOLID
 62
     7
 10
120.499938965
 20
-210.938827515
 30
0.000000000
 11
77.648803711
 21
-210.938827515
 31
0.000000000
  0
LINE
  8
PLAIN_
  6
SOLID
 62
     7
 10
77.648803711
 20
-210.938827515
 30
0.000000000
 11
158.499938965
 21
-210.938827515
 31
0.000000000
  0
LINE
  8
PLAIN_
  6
SOLID
 62
     7
 10
108.499938965
 20
-212.938629150
 30
0.000000000
 11
120.499938965
 21
-210.938827515
 31
0.000000000
  0
LINE
  8
PLAIN_
  6
SOLID
 62
     7
 10
120.499938965
 20
-210.938827515
 30
0.000000000
 11
108.499938965
 21
-208.939025879
 31
0.000000000
  0
LINE
  8
PLAIN_
  6
SOLID
 62
     7
 10
108.499938965
 20
-208.939025879
 30
0.000000000
 11
108.499938965
 21
-212.938629150
 31
0.000000000
  0
LINE
  8
PLAIN_
  6
SOLID
 62
     7
 10
140.499938965
 20
-210.938827515
 30
0.000000000
 11
158.499938965
 21
-210.938827515
 31
0.000000000
  0
LINE
  8
PLAIN_
  6
SOLID
 62
     7
 10
158.499938965
 20
-210.938827515
 30
0.000000000
 11
77.648803711
 21
-210.938827515
 31
0.000000000
  0
LINE
  8
PLAIN_
  6
SOLID
 62
     7
 10
152.499938965
 20
-208.939025879
 30
0.000000000
 11
140.499938965
 21
-210.938827515
 31
0.000000000
  0
LINE
  8
PLAIN_
  6
SOLID
 62
     7
 10
140.499938965
 20
-210.938827515
 30
0.000000000
 11
152.499938965
 21
-212.938629150
 31
0.000000000
  0
LINE
  8
PLAIN_
  6
SOLID
 62
     7
 10
152.499938965
 20
-212.938629150
 30
0.000000000
 11
152.499938965
 21
-208.939025879
 31
0.000000000
  0
TEXT
  8
PLAIN_
  6
SOLID
 62
     7
 10
82.948806763
 20
-204.938827515
 30
0.000000000
 40
12.000000000
  1
20
 50
0.000000000
 41
0.733230750
  0
ENDBLK
  0
BLOCK
  2
*D11
  8
PLAIN_
 70
    65
 10
0.000000000
 20
0.000000000
 30
0.000000000
  3
*D11
  0
LINE
  8
PLAIN_
  6
SOLID
 62
     7
 10
-70.500007629
 20
87.000000000
 30
0.000000000
 11
-70.500007629
 21
138.116409302
 31
0.000000000
  0
LINE
  8
PLAIN_
  6
SOLID
 62
     7
 10
-63.000007629
 20
105.500000000
 30
0.000000000
 11
-63.000007629
 21
138.116409302
 31
0.000000000
  0
LINE
  8
PLAIN_
  6
SOLID
 62
     7
 10
-70.500007629
 20
137.616409302
 30
0.000000000
 11
-114.399642944
 21
137.616409302
 31
0.000000000
  0
LINE
  8
PLAIN_
  6
SOLID
 62
     7
 10
-114.399642944
 20
137.616409302
 30
0.000000000
 11
-45.000007629
 21
137.616409302
 31
0.000000000
  0
LINE
  8
PLAIN_
  6
SOLID
 62
     7
 10
-82.500007629
 20
135.616607666
 30
0.000000000
 11
-70.500007629
 21
137.616409302
 31
0.000000000
  0
LINE
  8
PLAIN_
  6
SOLID
 62
     7
 10
-70.500007629
 20
137.616409302
 30
0.000000000
 11
-82.500007629
 21
139.616210938
 31
0.000000000
  0
LINE
  8
PLAIN_
  6
SOLID
 62
     7
 10
-82.500007629
 20
139.616210938
 30
0.000000000
 11
-82.500007629
 21
135.616607666
 31
0.000000000
  0
LINE
  8
PLAIN_
  6
SOLID
 62
     7
 10
-63.000007629
 20
137.616409302
 30
0.000000000
 11
-45.000007629
 21
137.616409302
 31
0.000000000
  0
LINE
  8
PLAIN_
  6
SOLID
 62
     7
 10
-45.000007629
 20
137.616409302
 30
0.000000000
 11
-114.399642944
 21
137.616409302
 31
0.000000000
  0
LINE
  8
PLAIN_
  6
SOLID
 62
     7
 10
-51.000007629
 20
139.616210938
 30
0.000000000
 11
-63.000007629
 21
137.616409302
 31
0.000000000
  0
LINE
  8
PLAIN_
  6
SOLID
 62
     7
 10
-63.000007629
 20
137.616409302
 30
0.000000000
 11
-51.000007629
 21
135.616607666
 31
0.000000000
  0
LINE
  8
PLAIN_
  6
SOLID
 62
     7
 10
-51.000007629
 20
135.616607666
 30
0.000000000
 11
-51.000007629
 21
139.616210938
 31
0.000000000
  0
TEXT
  8
PLAIN_
  6
SOLID
 62
     7
 10
-109.099639893
 20
143.616409302
 30
0.000000000
 40
12.000000000
  1
7.5
 50
0.000000000
 41
0.783230782
  0
ENDBLK
  0
BLOCK
  2
*D12
  8
PLAIN_
 70
    65
 10
0.000000000
 20
0.000000000
 30
0.000000000
  3
*D12
  0
LINE
  8
PLAIN_
  6
SOLID
 62
     7
 10
226.555969238
 20
-9.999001503
 30
0.000000000
 11
264.451293945
 21
-9.999000549
 31
0.000000000
  0
LINE
  8
PLAIN_
  6
SOLID
 62
     7
 10
226.555969238
 20
9.998999596
 30
0.000000000
 11
264.451293945
 21
9.999000549
 31
0.000000000
  0
LINE
  8
PLAIN_
  6
SOLID
 62
     7
 10
263.951293945
 20
-9.999000549
 30
0.000000000
 11
263.951293945
 21
-55.269069672
 31
0.000000000
  0
LINE
  8
PLAIN_
  6
SOLID
 62
     7
 10
263.951293945
 20
-55.269069672
 30
0.000000000
 11
263.951293945
 21
27.999000549
 31
0.000000000
  0
LINE
  8
PLAIN_
  6
SOLID
 62
     7
 10
265.951080322
 20
-21.999000549
 30
0.000000000
 11
263.951293945
 21
-9.999000549
 31
0.000000000
  0
LINE
  8
PLAIN_
  6
SOLID
 62
     7
 10
263.951293945
 20
-9.999000549
 30
0.000000000
 11
261.951507568
 21
-21.999000549
 31
0.000000000
  0
LINE
  8
PLAIN_
  6
SOLID
 62
     7
 10
261.951507568
 20
-21.999000549
 30
0.000000000
 11
265.951080322
 21
-21.999000549
 31
0.000000000
  0
LINE
  8
PLAIN_
  6
SOLID
 62
     7
 10
263.951293945
 20
9.999000549
 30
0.000000000
 11
263.951293945
 21
27.999000549
 31
0.000000000
  0
LINE
  8
PLAIN_
  6
SOLID
 62
     7
 10
263.951293945
 20
27.999000549
 30
0.000000000
 11
263.951293945
 21
-55.269069672
 31
0.000000000
  0
LINE
  8
PLAIN_
  6
SOLID
 62
     7
 10
261.951507568
 20
21.999000549
 30
0.000000000
 11
263.951293945
 21
9.999000549
 31
0.000000000
  0
LINE
  8
PLAIN_
  6
SOLID
 62
     7
 10
263.951293945
 20
9.999000549
 30
0.000000000
 11
265.951080322
 21
21.999000549
 31
0.000000000
  0
LINE
  8
PLAIN_
  6
SOLID
 62
     7
 10
265.951080322
 20
21.999000549
 30
0.000000000
 11
261.951507568
 21
21.999000549
 31
0.000000000
  0
TEXT
  8
PLAIN_
  6
SOLID
 62
     7
 10
257.951293945
 20
-49.969070435
 30
0.000000000
 40
12.000000000
  1
M
 50
90.000002504
 41
0.666615407
  0
TEXT
  8
PLAIN_
  6
SOLID
 62
     7
 10
257.951293945
 20
-39.369075775
 30
0.000000000
 40
12.000000000
  1
20
 50
90.000002504
 41
0.733230750
  0
ENDBLK
  0
BLOCK
  2
*D13
  8
PLAIN_
 70
    65
 10
0.000000000
 20
0.000000000
 30
0.000000000
  3
*D13
  0
LINE
  8
PLAIN_
  6
SOLID
 62
     7
 10
-147.500030518
 20
21.000000000
 30
0.000000000
 11
-147.500030518
 21
237.505767822
 31
0.000000000
  0
LINE
  8
PLAIN_
  6
SOLID
 62
     7
 10
-70.500007629
 20
91.500000000
 30
0.000000000
 11
-70.500007629
 21
237.505767822
 31
0.000000000
  0
LINE
  8
PLAIN_
  6
SOLID
 62
     7
 10
-147.500030518
 20
232.505767822
 30
0.000000000
 11
-70.500007629
 21
232.505767822
 31
0.000000000
  0
LINE
  8
PLAIN_
  6
SOLID
 62
     7
 10
-135.500030518
 20
234.505569458
 30
0.000000000
 11
-147.500030518
 21
232.505767822
 31
0.000000000
  0
LINE
  8
PLAIN_
  6
SOLID
 62
     7
 10
-147.500030518
 20
232.505767822
 30
0.000000000
 11
-135.500030518
 21
230.505966187
 31
0.000000000
  0
LINE
  8
PLAIN_
  6
SOLID
 62
     7
 10
-135.500030518
 20
230.505966187
 30
0.000000000
 11
-135.500030518
 21
234.505569458
 31
0.000000000
  0
LINE
  8
PLAIN_
  6
SOLID
 62
     7
 10
-70.500007629
 20
232.505767822
 30
0.000000000
 11
-147.500030518
 21
232.505767822
 31
0.000000000
  0
LINE
  8
PLAIN_
  6
SOLID
 62
     7
 10
-82.500007629
 20
230.505966187
 30
0.000000000
 11
-70.500007629
 21
232.505767822
 31
0.000000000
  0
LINE
  8
PLAIN_
  6
SOLID
 62
     7
 10
-70.500007629
 20
232.505767822
 30
0.000000000
 11
-82.500007629
 21
234.505569458
 31
0.000000000
  0
LINE
  8
PLAIN_
  6
SOLID
 62
     7
 10
-82.500007629
 20
234.505569458
 30
0.000000000
 11
-82.500007629
 21
230.505966187
 31
0.000000000
  0
TEXT
  8
PLAIN_
  6
SOLID
 62
     7
 10
-118.090797424
 20
238.505767822
 30
0.000000000
 40
12.000000000
  1
77
 50
0.000000000
 41
0.733230750
  0
ENDBLK
  0
BLOCK
  2
*D14
  8
PLAIN_
 70
    65
 10
0.000000000
 20
0.000000000
 30
0.000000000
  3
*D14
  0
LINE
  8
PLAIN_
  6
SOLID
 62
     7
 10
157.499938965
 20
-132.500000000
 30
0.000000000
 11
305.920196533
 21
-132.500000000
 31
0.000000000
  0
LINE
  8
PLAIN_
  6
SOLID
 62
     7
 10
157.499938965
 20
132.500000000
 30
0.000000000
 11
305.920196533
 21
132.500000000
 31
0.000000000
  0
LINE
  8
PLAIN_
  6
SOLID
 62
     7
 10
300.920196533
 20
-132.500000000
 30
0.000000000
 11
300.920196533
 21
132.500000000
 31
0.000000000
  0
LINE
  8
PLAIN_
  6
SOLID
 62
     7
 10
298.920410156
 20
-120.500000000
 30
0.000000000
 11
300.920196533
 21
-132.500000000
 31
0.000000000
  0
LINE
  8
PLAIN_
  6
SOLID
 62
     7
 10
300.920196533
 20
-132.500000000
 30
0.000000000
 11
302.919982910
 21
-120.500000000
 31
0.000000000
  0
LINE
  8
PLAIN_
  6
SOLID
 62
     7
 10
302.919982910
 20
-120.500000000
 30
0.000000000
 11
298.920410156
 21
-120.500000000
 31
0.000000000
  0
LINE
  8
PLAIN_
  6
SOLID
 62
     7
 10
300.920196533
 20
132.500000000
 30
0.000000000
 11
300.920196533
 21
-132.500000000
 31
0.000000000
  0
LINE
  8
PLAIN_
  6
SOLID
 62
     7
 10
302.919982910
 20
120.500000000
 30
0.000000000
 11
300.920196533
 21
132.500000000
 31
0.000000000
  0
LINE
  8
PLAIN_
  6
SOLID
 62
     7
 10
300.920196533
 20
132.500000000
 30
0.000000000
 11
298.920410156
 21
120.500000000
 31
0.000000000
  0
LINE
  8
PLAIN_
  6
SOLID
 62
     7
 10
298.920410156
 20
120.500000000
 30
0.000000000
 11
302.919982910
 21
120.500000000
 31
0.000000000
  0
TEXT
  8
PLAIN_
  6
SOLID
 62
     7
 10
294.920196533
 20
-17.454103470
 30
0.000000000
 40
12.000000000
  1
%%c
 50
90.000002504
 41
0.666615407
  0
TEXT
  8
PLAIN_
  6
SOLID
 62
     7
 10
294.920196533
 20
-6.854107380
 30
0.000000000
 40
12.000000000
  1
265
 50
90.000002504
 41
0.783230782
  0
TEXT
  8
PLAIN_
  6
SOLID
 62
     7
 10
294.920196533
 20
24.945880890
 30
0.000000000
 40
12.000000000
  1
f7
 50
90.000002504
 41
0.733230750
  0
ENDBLK
  0
BLOCK
  2
*D15
  8
PLAIN_
 70
    65
 10
0.000000000
 20
0.000000000
 30
0.000000000
  3
*D15
  0
LINE
  8
PLAIN_
  6
SOLID
 62
     7
 10
168.364440918
 20
-155.000000000
 30
0.000000000
 11
339.124938965
 21
-155.000000000
 31
0.000000000
  0
LINE
  8
PLAIN_
  6
SOLID
 62
     7
 10
334.124938965
 20
-155.000000000
 30
0.000000000
 11
334.124938965
 21
28.455261230
 31
0.000000000
  0
LINE
  8
PLAIN_
  6
SOLID
 62
     7
 10
332.125152588
 20
-143.000000000
 30
0.000000000
 11
334.124938965
 21
-155.000000000
 31
0.000000000
  0
LINE
  8
PLAIN_
  6
SOLID
 62
     7
 10
334.124938965
 20
-155.000000000
 30
0.000000000
 11
336.124725342
 21
-143.000000000
 31
0.000000000
  0
LINE
  8
PLAIN_
  6
SOLID
 62
     7
 10
336.124725342
 20
-143.000000000
 30
0.000000000
 11
332.125152588
 21
-143.000000000
 31
0.000000000
  0
LINE
  8
PLAIN_
  6
SOLID
 62
     7
 10
334.124938965
 20
28.455261230
 30
0.000000000
 11
334.124938965
 21
-155.000000000
 31
0.000000000
  0
TEXT
  8
PLAIN_
  6
SOLID
 62
     7
 10
328.124938965
 20
-71.879425049
 30
0.000000000
 40
12.000000000
  1
%%c
 50
90.000002504
 41
0.666615407
  0
TEXT
  8
PLAIN_
  6
SOLID
 62
     7
 10
328.124938965
 20
-61.279430389
 30
0.000000000
 40
12.000000000
  1
310
 50
90.000002504
 41
0.783230782
  0
ENDBLK
  0
BLOCK
  2
*L2
  8
PLAIN_
 70
    65
 10
0.000000000
 20
0.000000000
 30
0.000000000
  3
*L2
  0
LINE
  8
PLAIN_
  6
SOLID
 62
     7
 10
501.356536865
 20
-55.750000000
 30
0.000000000
 11
419.678558350
 21
-225.656066895
 31
0.000000000
  0
LINE
  8
PLAIN_
  6
SOLID
 62
     7
 10
419.678558350
 20
-225.656066895
 30
0.000000000
 11
400.590667725
 21
-225.656066895
 31
0.000000000
  0
LINE
  8
PLAIN_
  6
SOLID
 62
     7
 10
498.525878906
 20
-65.484710693
 30
0.000000000
 11
501.356536865
 21
-55.750000000
 31
0.000000000
  0
LINE
  8
PLAIN_
  6
SOLID
 62
     7
 10
501.356536865
 20
-55.750000000
 30
0.000000000
 11
495.521972656
 21
-64.040649414
 31
0.000000000
  0
LINE
  8
PLAIN_
  6
SOLID
 62
     7
 10
495.521972656
 20
-64.040649414
 30
0.000000000
 11
498.525878906
 21
-65.484710693
 31
0.000000000
  0
TEXT
  8
PLAIN_
  6
SOLID
 62
     7
 10
319.099914551
 20
-223.156066895
 30
0.000000000
 40
10.000000000
  1
N%%d2 HOLES
 50
0.000000000
 41
0.849897342
  0
TEXT
  8
PLAIN_
  6
SOLID
 62
     7
 10
319.099914551
 20
-238.156066895
 30
0.000000000
 40
10.000000000
  1
1/2" BSP
 50
0.000000000
 41
0.845730686
  0
ENDBLK
  0
BLOCK
  2
*D16
  8
PLAIN_
 70
    65
 10
0.000000000
 20
0.000000000
 30
0.000000000
  3
*D16
  0
LINE
  8
PLAIN_
  6
SOLID
 62
     7
 10
428.154815674
 20
0.341080993
 30
0.000000000
 11
379.771453857
 21
0.341079563
 31
0.000000000
  0
LINE
  8
PLAIN_
  6
SOLID
 62
     7
 10
555.010559082
 20
160.341094971
 30
0.000000000
 11
379.771453857
 21
160.341094971
 31
0.000000000
  0
LINE
  8
PLAIN_
  6
SOLID
 62
     7
 10
384.771453857
 20
0.341079712
 30
0.000000000
 11
384.771453857
 21
160.341094971
 31
0.000000000
  0
LINE
  8
PLAIN_
  6
SOLID
 62
     7
 10
382.771667480
 20
12.341078758
 30
0.000000000
 11
384.771453857
 21
0.341079712
 31
0.000000000
  0
LINE
  8
PLAIN_
  6
SOLID
 62
     7
 10
384.771453857
 20
0.341079712
 30
0.000000000
 11
386.771240234
 21
12.341078758
 31
0.000000000
  0
LINE
  8
PLAIN_
  6
SOLID
 62
     7
 10
386.771240234
 20
12.341078758
 30
0.000000000
 11
382.771667480
 21
12.341078758
 31
0.000000000
  0
LINE
  8
PLAIN_
  6
SOLID
 62
     7
 10
384.771453857
 20
160.341094971
 30
0.000000000
 11
384.771453857
 21
0.341079712
 31
0.000000000
  0
LINE
  8
PLAIN_
  6
SOLID
 62
     7
 10
386.771240234
 20
148.341094971
 30
0.000000000
 11
384.771453857
 21
160.341094971
 31
0.000000000
  0
LINE
  8
PLAIN_
  6
SOLID
 62
     7
 10
384.771453857
 20
160.341094971
 30
0.000000000
 11
382.771667480
 21
148.341094971
 31
0.000000000
  0
LINE
  8
PLAIN_
  6
SOLID
 62
     7
 10
382.771667480
 20
148.341094971
 30
0.000000000
 11
386.771240234
 21
148.341094971
 31
0.000000000
  0
TEXT
  8
PLAIN_
  6
SOLID
 62
     7
 10
378.771453857
 20
58.378028870
 30
0.000000000
 40
12.000000000
  1
160
 50
90.000002504
 41
0.783230782
  0
ENDBLK
  0
BLOCK
  2
*D17
  8
PLAIN_
 70
    65
 10
0.000000000
 20
0.000000000
 30
0.000000000
  3
*D17
  0
LINE
  8
PLAIN_
  6
SOLID
 62
     7
 10
-68.000007629
 20
-87.499969482
 30
0.000000000
 11
-179.230255127
 21
-87.499969482
 31
0.000000000
  0
LINE
  8
PLAIN_
  6
SOLID
 62
     7
 10
-68.000007629
 20
87.500000000
 30
0.000000000
 11
-179.230255127
 21
87.500000000
 31
0.000000000
  0
LINE
  8
PLAIN_
  6
SOLID
 62
     7
 10
-174.230255127
 20
-87.499969482
 30
0.000000000
 11
-174.230255127
 21
87.500000000
 31
0.000000000
  0
LINE
  8
PLAIN_
  6
SOLID
 62
     7
 10
-176.230056763
 20
-75.499969482
 30
0.000000000
 11
-174.230255127
 21
-87.499969482
 31
0.000000000
  0
LINE
  8
PLAIN_
  6
SOLID
 62
     7
 10
-174.230255127
 20
-87.499969482
 30
0.000000000
 11
-172.230453491
 21
-75.499969482
 31
0.000000000
  0
LINE
  8
PLAIN_
  6
SOLID
 62
     7
 10
-172.230453491
 20
-75.499969482
 30
0.000000000
 11
-176.230056763
 21
-75.499969482
 31
0.000000000
  0
LINE
  8
PLAIN_
  6
SOLID
 62
     7
 10
-174.230255127
 20
87.500000000
 30
0.000000000
 11
-174.230255127
 21
-87.499969482
 31
0.000000000
  0
LINE
  8
PLAIN_
  6
SOLID
 62
     7
 10
-172.230453491
 20
75.500000000
 30
0.000000000
 11
-174.230255127
 21
87.500000000
 31
0.000000000
  0
LINE
  8
PLAIN_
  6
SOLID
 62
     7
 10
-174.230255127
 20
87.500000000
 30
0.000000000
 11
-176.230056763
 21
75.500000000
 31
0.000000000
  0
LINE
  8
PLAIN_
  6
SOLID
 62
     7
 10
-176.230056763
 20
75.500000000
 30
0.000000000
 11
-172.230453491
 21
75.500000000
 31
0.000000000
  0
TEXT
  8
PLAIN_
  6
SOLID
 62
     7
 10
-180.230255127
 20
-34.065692902
 30
0.000000000
 40
12.000000000
  1
%%c
 50
90.000002504
 41
0.666615407
  0
TEXT
  8
PLAIN_
  6
SOLID
 62
     7
 10
-180.230255127
 20
-23.465696335
 30
0.000000000
 40
12.000000000
  1
175
 50
90.000002504
 41
0.783230782
  0
TEXT
  8
PLAIN_
  6
SOLID
 62
     7
 10
-180.230255127
 20
8.334291458
 30
0.000000000
 40
12.000000000
  1
f7
 50
90.000002504
 41
0.733230750
  0
ENDBLK
  0
BLOCK
  2
*D18
  8
PLAIN_
 70
    65
 10
0.000000000
 20
0.000000000
 30
0.000000000
  3
*D18
  0
LINE
  8
PLAIN_
  6
SOLID
 62
     7
 10
524.548461914
 20
142.108825684
 30
0.000000000
 11
494.347106934
 21
183.677413940
 31
0.000000000
  0
LINE
  8
PLAIN_
  6
SOLID
 62
     7
 10
540.728759766
 20
153.864532471
 30
0.000000000
 11
510.527435303
 21
195.433105469
 31
0.000000000
  0
LINE
  8
PLAIN_
  6
SOLID
 62
     7
 10
494.640991211
 20
183.272903442
 30
0.000000000
 11
480.078674316
 21
172.692764282
 31
0.000000000
  0
LINE
  8
PLAIN_
  6
SOLID
 62
     7
 10
480.078674316
 20
172.692764282
 30
0.000000000
 11
525.383605957
 21
205.608718872
 31
0.000000000
  0
LINE
  8
PLAIN_
  6
SOLID
 62
     7
 10
486.108245850
 20
174.601608276
 30
0.000000000
 11
494.640991211
 21
183.272903442
 31
0.000000000
  0
LINE
  8
PLAIN_
  6
SOLID
 62
     7
 10
494.640991211
 20
183.272903442
 30
0.000000000
 11
483.757354736
 21
177.837356567
 31
0.000000000
  0
LINE
  8
PLAIN_
  6
SOLID
 62
     7
 10
483.757354736
 20
177.837356567
 30
0.000000000
 11
486.108245850
 21
174.601608276
 31
0.000000000
  0
LINE
  8
PLAIN_
  6
SOLID
 62
     7
 10
510.821319580
 20
195.028594971
 30
0.000000000
 11
525.383605957
 21
205.608718872
 31
0.000000000
  0
LINE
  8
PLAIN_
  6
SOLID
 62
     7
 10
525.383605957
 20
205.608718872
 30
0.000000000
 11
480.078674316
 21
172.692764282
 31
0.000000000
  0
LINE
  8
PLAIN_
  6
SOLID
 62
     7
 10
519.354064941
 20
203.699890137
 30
0.000000000
 11
510.821319580
 21
195.028594971
 31
0.000000000
  0
LINE
  8
PLAIN_
  6
SOLID
 62
     7
 10
510.821319580
 20
195.028594971
 30
0.000000000
 11
521.705017090
 21
200.464141846
 31
0.000000000
  0
LINE
  8
PLAIN_
  6
SOLID
 62
     7
 10
521.705017090
 20
200.464141846
 30
0.000000000
 11
519.354064941
 21
203.699890137
 31
0.000000000
  0
TEXT
  8
PLAIN_
  6
SOLID
 62
     7
 10
488.750732422
 20
186.409759521
 30
0.000000000
 40
12.000000000
  1
20
 50
36.000001002
 41
0.733230750
  0
ENDBLK
  0
BLOCK
  2
*D19
  8
PLAIN_
 70
    65
 10
0.000000000
 20
0.000000000
 30
0.000000000
  3
*D19
  0
LINE
  8
PLAIN_
  6
SOLID
 62
     7
 10
735.004455566
 20
131.228317261
 30
0.000000000
 11
781.032897949
 21
194.581085205
 31
0.000000000
  0
LINE
  8
PLAIN_
  6
SOLID
 62
     7
 10
639.909362793
 20
231.754318237
 30
0.000000000
 11
639.909362793
 21
240.434860229
 31
0.000000000
  0
LINE
  8
PLAIN_
  6
SOLID
 62
     7
 10
767.075134277
 20
195.692001343
 30
0.000000000
 11
778.093994141
 21
190.535995483
 31
0.000000000
  0
LINE
  8
PLAIN_
  6
SOLID
 62
     7
 10
778.093994141
 20
190.535995483
 30
0.000000000
 11
769.342712402
 21
198.986679077
 31
0.000000000
  0
LINE
  8
PLAIN_
  6
SOLID
 62
     7
 10
769.342712402
 20
198.986679077
 30
0.000000000
 11
767.075134277
 21
195.692001343
 31
0.000000000
  0
LINE
  8
PLAIN_
  6
SOLID
 62
     7
 10
651.956481934
 20
237.127746582
 30
0.000000000
 11
639.909362793
 21
235.434860229
 31
0.000000000
  0
LINE
  8
PLAIN_
  6
SOLID
 62
     7
 10
639.909362793
 20
235.434860229
 30
0.000000000
 11
651.854431152
 21
233.129455566
 31
0.000000000
  0
LINE
  8
PLAIN_
  6
SOLID
 62
     7
 10
651.854431152
 20
233.129455566
 30
0.000000000
 11
651.956481934
 21
237.127746582
 31
0.000000000
  0
ARC
  8
PLAIN_
  6
SOLID
 62
     7
 10
639.909362793
 20
0.341019154
 30
0.000000000
 40
235.093856812
 50
54.000021209
 51
90.000000000
  0
ARC
  8
PLAIN_
  6
SOLID
 62
     7
 10
639.909362793
 20
0.341019154
 30
0.000000000
 40
235.093856812
 50
54.000021209
 51
90.000000000
  0
TEXT
  8
PLAIN_
  6
SOLID
 62
     7
 10
708.283935547
 20
231.879074097
 30
0.000000000
 40
12.000000000
  1
36%%d
 50
-19.443409010
 41
0.699897448
  0
ENDBLK
  0
BLOCK
  2
*D20
  8
PLAIN_
 70
    65
 10
0.000000000
 20
0.000000000
 30
0.000000000
  3
*D20
  0
LINE
  8
PLAIN_
  6
SOLID
 62
     7
 10
696.909362793
 20
-67.658920288
 30
0.000000000
 11
732.003540039
 21
-67.658920288
 31
0.000000000
  0
LINE
  8
PLAIN_
  6
SOLID
 62
     7
 10
731.503540039
 20
-67.658920288
 30
0.000000000
 11
731.503540039
 21
0.341079712
 31
0.000000000
  0
LINE
  8
PLAIN_
  6
SOLID
 62
     7
 10
729.503723145
 20
-55.658920288
 30
0.000000000
 11
731.503540039
 21
-67.658920288
 31
0.000000000
  0
LINE
  8
PLAIN_
  6
SOLID
 62
     7
 10
731.503540039
 20
-67.658920288
 30
0.000000000
 11
733.503356934
 21
-55.658920288
 31
0.000000000
  0
LINE
  8
PLAIN_
  6
SOLID
 62
     7
 10
733.503356934
 20
-55.658920288
 30
0.000000000
 11
729.503723145
 21
-55.658920288
 31
0.000000000
  0
LINE
  8
PLAIN_
  6
SOLID
 62
     7
 10
731.503540039
 20
0.341079712
 30
0.000000000
 11
731.503540039
 21
-67.658920288
 31
0.000000000
  0
LINE
  8
PLAIN_
  6
SOLID
 62
     7
 10
733.503356934
 20
-11.658919334
 30
0.000000000
 11
731.503540039
 21
0.341079712
 31
0.000000000
  0
LINE
  8
PLAIN_
  6
SOLID
 62
     7
 10
731.503540039
 20
0.341079712
 30
0.000000000
 11
729.503723145
 21
-11.658919334
 31
0.000000000
  0
LINE
  8
PLAIN_
  6
SOLID
 62
     7
 10
729.503723145
 20
-11.658919334
 30
0.000000000
 11
733.503356934
 21
-11.658919334
 31
0.000000000
  0
TEXT
  8
PLAIN_
  6
SOLID
 62
     7
 10
725.503540039
 20
-38.287597656
 30
0.000000000
 40
12.000000000
  1
68
 50
90.000002504
 41
0.769923051
  0
ENDBLK
  0
BLOCK
  2
*D21
  8
PLAIN_
 70
    65
 10
0.000000000
 20
0.000000000
 30
0.000000000
  3
*D21
  0
LINE
  8
PLAIN_
  6
SOLID
 62
     7
 10
605.409362793
 20
-78.513031006
 30
0.000000000
 11
605.409362793
 21
-98.482467651
 31
0.000000000
  0
LINE
  8
PLAIN_
  6
SOLID
 62
     7
 10
674.409362793
 20
-78.021522522
 30
0.000000000
 11
674.409362793
 21
-98.482467651
 31
0.000000000
  0
LINE
  8
PLAIN_
  6
SOLID
 62
     7
 10
605.409362793
 20
-93.482467651
 30
0.000000000
 11
674.409362793
 21
-93.482467651
 31
0.000000000
  0
LINE
  8
PLAIN_
  6
SOLID
 62
     7
 10
617.409362793
 20
-91.482666016
 30
0.000000000
 11
605.409362793
 21
-93.482467651
 31
0.000000000
  0
LINE
  8
PLAIN_
  6
SOLID
 62
     7
 10
605.409362793
 20
-93.482467651
 30
0.000000000
 11
617.409362793
 21
-95.482269287
 31
0.000000000
  0
LINE
  8
PLAIN_
  6
SOLID
 62
     7
 10
617.409362793
 20
-95.482269287
 30
0.000000000
 11
617.409362793
 21
-91.482666016
 31
0.000000000
  0
LINE
  8
PLAIN_
  6
SOLID
 62
     7
 10
674.409362793
 20
-93.482467651
 30
0.000000000
 11
605.409362793
 21
-93.482467651
 31
0.000000000
  0
LINE
  8
PLAIN_
  6
SOLID
 62
     7
 10
662.409362793
 20
-95.482269287
 30
0.000000000
 11
674.409362793
 21
-93.482467651
 31
0.000000000
  0
LINE
  8
PLAIN_
  6
SOLID
 62
     7
 10
674.409362793
 20
-93.482467651
 30
0.000000000
 11
662.409362793
 21
-91.482666016
 31
0.000000000
  0
LINE
  8
PLAIN_
  6
SOLID
 62
     7
 10
662.409362793
 20
-91.482666016
 30
0.000000000
 11
662.409362793
 21
-95.482269287
 31
0.000000000
  0
TEXT
  8
PLAIN_
  6
SOLID
 62
     7
 10
632.079223633
 20
-87.482467651
 30
0.000000000
 40
12.000000000
  1
69
 50
0.000000000
 41
0.733230750
  0
ENDBLK
  0
BLOCK
  2
*D22
  8
PLAIN_
 70
    65
 10
0.000000000
 20
0.000000000
 30
0.000000000
  3
*D22
  0
LINE
  8
PLAIN_
  6
SOLID
 62
     7
 10
624.909362793
 20
-181.658920288
 30
0.000000000
 11
379.311584473
 21
-181.658920288
 31
0.000000000
  0
LINE
  8
PLAIN_
  6
SOLID
 62
     7
 10
428.154815674
 20
0.341080993
 30
0.000000000
 11
379.311584473
 21
0.341079563
 31
0.000000000
  0
LINE
  8
PLAIN_
  6
SOLID
 62
     7
 10
384.311584473
 20
-181.658920288
 30
0.000000000
 11
384.311584473
 21
0.341079712
 31
0.000000000
  0
LINE
  8
PLAIN_
  6
SOLID
 62
     7
 10
382.311798096
 20
-169.658920288
 30
0.000000000
 11
384.311584473
 21
-181.658920288
 31
0.000000000
  0
LINE
  8
PLAIN_
  6
SOLID
 62
     7
 10
384.311584473
 20
-181.658920288
 30
0.000000000
 11
386.311370850
 21
-169.658920288
 31
0.000000000
  0
LINE
  8
PLAIN_
  6
SOLID
 62
     7
 10
386.311370850
 20
-169.658920288
 30
0.000000000
 11
382.311798096
 21
-169.658920288
 31
0.000000000
  0
LINE
  8
PLAIN_
  6
SOLID
 62
     7
 10
384.311584473
 20
0.341079712
 30
0.000000000
 11
384.311584473
 21
-181.658920288
 31
0.000000000
  0
LINE
  8
PLAIN_
  6
SOLID
 62
     7
 10
386.311370850
 20
-11.658919334
 30
0.000000000
 11
384.311584473
 21
0.341079712
 31
0.000000000
  0
LINE
  8
PLAIN_
  6
SOLID
 62
     7
 10
384.311584473
 20
0.341079712
 30
0.000000000
 11
382.311798096
 21
-11.658919334
 31
0.000000000
  0
LINE
  8
PLAIN_
  6
SOLID
 62
     7
 10
382.311798096
 20
-11.658919334
 30
0.000000000
 11
386.311370850
 21
-11.658919334
 31
0.000000000
  0
TEXT
  8
PLAIN_
  6
SOLID
 62
     7
 10
378.311584473
 20
-98.035011292
 30
0.000000000
 40
12.000000000
  1
182
 50
90.000002504
 41
0.783230782
  0
ENDBLK
  0
BLOCK
  2
*D23
  8
PLAIN_
 70
    65
 10
0.000000000
 20
0.000000000
 30
0.000000000
  3
*D23
  0
LINE
  8
PLAIN_
  6
SOLID
 62
     7
 10
434.289947510
 20
-66.468711853
 30
0.000000000
 11
410.089172363
 21
-74.332023621
 31
0.000000000
  0
LINE
  8
PLAIN_
  6
SOLID
 62
     7
 10
639.909362793
 20
-227.326965332
 30
0.000000000
 11
639.909362793
 21
-241.306152344
 31
0.000000000
  0
LINE
  8
PLAIN_
  6
SOLID
 62
     7
 10
420.726470947
 20
-83.435935974
 30
0.000000000
 11
414.844451904
 21
-72.786941528
 31
0.000000000
  0
LINE
  8
PLAIN_
  6
SOLID
 62
     7
 10
414.844451904
 20
-72.786941528
 30
0.000000000
 11
416.955169678
 21
-84.767921448
 31
0.000000000
  0
LINE
  8
PLAIN_
  6
SOLID
 62
     7
 10
416.955169678
 20
-84.767921448
 30
0.000000000
 11
420.726470947
 21
-83.435935974
 31
0.000000000
  0
LINE
  8
PLAIN_
  6
SOLID
 62
     7
 10
627.862487793
 20
-238.001068115
 30
0.000000000
 11
639.909362793
 21
-236.306152344
 31
0.000000000
  0
LINE
  8
PLAIN_
  6
SOLID
 62
     7
 10
639.909362793
 20
-236.306152344
 30
0.000000000
 11
627.963928223
 21
-234.002746582
 31
0.000000000
  0
LINE
  8
PLAIN_
  6
SOLID
 62
     7
 10
627.963928223
 20
-234.002746582
 30
0.000000000
 11
627.862487793
 21
-238.001068115
 31
0.000000000
  0
ARC
  8
PLAIN_
  6
SOLID
 62
     7
 10
639.909362793
 20
0.341088295
 30
0.000000000
 40
236.647247314
 50
198.000001691
 51
270.000000000
  0
ARC
  8
PLAIN_
  6
SOLID
 62
     7
 10
639.909362793
 20
0.341088295
 30
0.000000000
 40
236.647247314
 50
198.000001691
 51
270.000000000
  0
TEXT
  8
PLAIN_
  6
SOLID
 62
     7
 10
474.774505615
 20
-160.682632446
 30
0.000000000
 40
12.000000000
  1
72%%d
 50
-42.591051589
 41
0.699897448
  0
ENDBLK
  0
BLOCK
  2
*D24
  8
PLAIN_
 70
    65
 10
0.000000000
 20
0.000000000
 30
0.000000000
  3
*D24
  0
LINE
  8
PLAIN_
  6
SOLID
 62
     7
 10
190.499969482
 20
-14.998999596
 30
0.000000000
 11
190.499969482
 21
-78.486938477
 31
0.000000000
  0
LINE
  8
PLAIN_
  6
SOLID
 62
     7
 10
230.499984741
 20
-33.000003815
 30
0.000000000
 11
230.499984741
 21
-78.486938477
 31
0.000000000
  0
LINE
  8
PLAIN_
  6
SOLID
 62
     7
 10
190.499969482
 20
-73.486938477
 30
0.000000000
 11
230.499984741
 21
-73.486938477
 31
0.000000000
  0
LINE
  8
PLAIN_
  6
SOLID
 62
     7
 10
202.499969482
 20
-71.487136841
 30
0.000000000
 11
190.499969482
 21
-73.486938477
 31
0.000000000
  0
LINE
  8
PLAIN_
  6
SOLID
 62
     7
 10
190.499969482
 20
-73.486938477
 30
0.000000000
 11
202.499969482
 21
-75.486740112
 31
0.000000000
  0
LINE
  8
PLAIN_
  6
SOLID
 62
     7
 10
202.499969482
 20
-75.486740112
 30
0.000000000
 11
202.499969482
 21
-71.487136841
 31
0.000000000
  0
LINE
  8
PLAIN_
  6
SOLID
 62
     7
 10
230.499984741
 20
-73.486938477
 30
0.000000000
 11
190.499969482
 21
-73.486938477
 31
0.000000000
  0
LINE
  8
PLAIN_
  6
SOLID
 62
     7
 10
218.499984741
 20
-75.486740112
 30
0.000000000
 11
230.499984741
 21
-73.486938477
 31
0.000000000
  0
LINE
  8
PLAIN_
  6
SOLID
 62
     7
 10
230.499984741
 20
-73.486938477
 30
0.000000000
 11
218.499984741
 21
-71.487136841
 31
0.000000000
  0
LINE
  8
PLAIN_
  6
SOLID
 62
     7
 10
218.499984741
 20
-71.487136841
 30
0.000000000
 11
218.499984741
 21
-75.486740112
 31
0.000000000
  0
TEXT
  8
PLAIN_
  6
SOLID
 62
     7
 10
203.226593018
 20
-67.486938477
 30
0.000000000
 40
12.000000000
  1
40
 50
0.000000000
 41
0.733230750
  0
ENDBLK
  0
BLOCK
  2
*D25
  8
PLAIN_
 70
    65
 10
0.000000000
 20
0.000000000
 30
0.000000000
  3
*D25
  0
LINE
  8
PLAIN_
  6
SOLID
 62
     7
 10
-111.500007629
 20
-73.000000000
 30
0.000000000
 11
-111.500007629
 21
-279.240356445
 31
0.000000000
  0
LINE
  8
PLAIN_
  6
SOLID
 62
     7
 10
140.499938965
 20
-185.576171875
 30
0.000000000
 11
140.499938965
 21
-279.240356445
 31
0.000000000
  0
LINE
  8
PLAIN_
  6
SOLID
 62
     7
 10
-111.500007629
 20
-274.240356445
 30
0.000000000
 11
140.499938965
 21
-274.240356445
 31
0.000000000
  0
LINE
  8
PLAIN_
  6
SOLID
 62
     7
 10
-99.500007629
 20
-272.240570068
 30
0.000000000
 11
-111.500007629
 21
-274.240356445
 31
0.000000000
  0
LINE
  8
PLAIN_
  6
SOLID
 62
     7
 10
-111.500007629
 20
-274.240356445
 30
0.000000000
 11
-99.500007629
 21
-276.240142822
 31
0.000000000
  0
LINE
  8
PLAIN_
  6
SOLID
 62
     7
 10
-99.500007629
 20
-276.240142822
 30
0.000000000
 11
-99.500007629
 21
-272.240570068
 31
0.000000000
  0
LINE
  8
PLAIN_
  6
SOLID
 62
     7
 10
140.499938965
 20
-274.240356445
 30
0.000000000
 11
-111.500007629
 21
-274.240356445
 31
0.000000000
  0
LINE
  8
PLAIN_
  6
SOLID
 62
     7
 10
128.499938965
 20
-276.240142822
 30
0.000000000
 11
140.499938965
 21
-274.240356445
 31
0.000000000
  0
LINE
  8
PLAIN_
  6
SOLID
 62
     7
 10
140.499938965
 20
-274.240356445
 30
0.000000000
 11
128.499938965
 21
-272.240570068
 31
0.000000000
  0
LINE
  8
PLAIN_
  6
SOLID
 62
     7
 10
128.499938965
 20
-272.240570068
 30
0.000000000
 11
128.499938965
 21
-276.240142822
 31
0.000000000
  0
TEXT
  8
PLAIN_
  6
SOLID
 62
     7
 10
-7.756257534
 20
-268.240356445
 30
0.000000000
 40
12.000000000
  1
252
 50
0.000000000
 41
0.783230782
  0
ENDBLK
  0
BLOCK
  2
*D26
  8
PLAIN_
 70
    65
 10
0.000000000
 20
0.000000000
 30
0.000000000
  3
*D26
  0
LINE
  8
PLAIN_
  6
SOLID
 62
     7
 10
-111.500007629
 20
-73.000000000
 30
0.000000000
 11
-111.500007629
 21
-183.170150757
 31
0.000000000
  0
LINE
  8
PLAIN_
  6
SOLID
 62
     7
 10
-70.500007629
 20
-91.499969482
 30
0.000000000
 11
-70.500007629
 21
-183.170150757
 31
0.000000000
  0
LINE
  8
PLAIN_
  6
SOLID
 62
     7
 10
-111.500007629
 20
-178.170150757
 30
0.000000000
 11
-70.500007629
 21
-178.170150757
 31
0.000000000
  0
LINE
  8
PLAIN_
  6
SOLID
 62
     7
 10
-99.500007629
 20
-176.170349121
 30
0.000000000
 11
-111.500007629
 21
-178.170150757
 31
0.000000000
  0
LINE
  8
PLAIN_
  6
SOLID
 62
     7
 10
-111.500007629
 20
-178.170150757
 30
0.000000000
 11
-99.500007629
 21
-180.169952393
 31
0.000000000
  0
LINE
  8
PLAIN_
  6
SOLID
 62
     7
 10
-99.500007629
 20
-180.169952393
 30
0.000000000
 11
-99.500007629
 21
-176.170349121
 31
0.000000000
  0
LINE
  8
PLAIN_
  6
SOLID
 62
     7
 10
-70.500007629
 20
-178.170150757
 30
0.000000000
 11
-111.500007629
 21
-178.170150757
 31
0.000000000
  0
LINE
  8
PLAIN_
  6
SOLID
 62
     7
 10
-82.500007629
 20
-180.169952393
 30
0.000000000
 11
-70.500007629
 21
-178.170150757
 31
0.000000000
  0
LINE
  8
PLAIN_
  6
SOLID
 62
     7
 10
-70.500007629
 20
-178.170150757
 30
0.000000000
 11
-82.500007629
 21
-176.170349121
 31
0.000000000
  0
LINE
  8
PLAIN_
  6
SOLID
 62
     7
 10
-82.500007629
 20
-176.170349121
 30
0.000000000
 11
-82.500007629
 21
-180.169952393
 31
0.000000000
  0
TEXT
  8
PLAIN_
  6
SOLID
 62
     7
 10
-96.754997253
 20
-172.170150757
 30
0.000000000
 40
12.000000000
  1
41
 50
0.000000000
 41
0.608230790
  0
ENDBLK
  0
BLOCK
  2
*L3
  8
PLAIN_
 70
    65
 10
0.000000000
 20
0.000000000
 30
0.000000000
  3
*L3
  0
LINE
  8
PLAIN_
  6
SOLID
 62
     7
 10
-113.225410461
 20
-69.836357117
 30
0.000000000
 11
-161.321350098
 21
-115.549453735
 31
0.000000000
  0
LINE
  8
PLAIN_
  6
SOLID
 62
     7
 10
-161.321350098
 20
-115.549453735
 30
0.000000000
 11
-161.325042725
 21
-152.945053101
 31
0.000000000
  0
LINE
  8
PLAIN_
  6
SOLID
 62
     7
 10
-118.715637207
 20
-77.123809814
 30
0.000000000
 11
-113.225410461
 21
-69.836357117
 31
0.000000000
  0
LINE
  8
PLAIN_
  6
SOLID
 62
     7
 10
-113.225410461
 20
-69.836357117
 30
0.000000000
 11
-120.782196045
 21
-74.949523926
 31
0.000000000
  0
LINE
  8
PLAIN_
  6
SOLID
 62
     7
 10
-120.782196045
 20
-74.949523926
 30
0.000000000
 11
-118.715637207
 21
-77.123809814
 31
0.000000000
  0
TEXT
  8
PLAIN_
  6
SOLID
 62
     7
 10
-192.175262451
 20
-169.627655029
 30
0.000000000
 40
9.000000000
  1
N%%d2 HOLES
 50
0.000000000
 41
0.761733726
  0
TEXT
  8
PLAIN_
  6
SOLID
 62
     7
 10
-192.175262451
 20
-183.127655029
 30
0.000000000
 40
9.000000000
  1
1" BSP
 50
0.000000000
 41
0.730177844
  0
ENDBLK
  0
BLOCK
  2
*L4
  8
PLAIN_
 70
    65
 10
0.000000000
 20
0.000000000
 30
0.000000000
  3
*L4
  0
LINE
  8
PLAIN_
  6
SOLID
 62
     7
 10
216.428375244
 20
36.054141998
 30
0.000000000
 11
307.763244629
 21
186.766555786
 31
0.000000000
  0
LINE
  8
PLAIN_
  6
SOLID
 62
     7
 10
307.763244629
 20
186.766555786
 30
0.000000000
 11
307.758361816
 21
210.517013550
 31
0.000000000
  0
LINE
  8
PLAIN_
  6
SOLID
 62
     7
 10
220.937438965
 20
47.353141785
 30
0.000000000
 11
216.428375244
 21
36.054141998
 31
0.000000000
  0
LINE
  8
PLAIN_
  6
SOLID
 62
     7
 10
216.428375244
 20
36.054141998
 30
0.000000000
 11
224.357940674
 21
45.280242920
 31
0.000000000
  0
LINE
  8
PLAIN_
  6
SOLID
 62
     7
 10
224.357940674
 20
45.280242920
 30
0.000000000
 11
220.937438965
 21
47.353141785
 31
0.000000000
  0
TEXT
  8
PLAIN_
  6
SOLID
 62
     7
 10
267.163269043
 20
234.517013550
 30
0.000000000
 40
12.000000000
  1
65X3X20
 50
0.000000000
 41
0.840373630
  0
TEXT
  8
PLAIN_
  6
SOLID
 62
     7
 10
267.163269043
 20
216.517013550
 30
0.000000000
 40
12.000000000
  1
DIN 5480
 50
0.000000000
 41
0.845730782
  0
ENDBLK
  0
ENDSEC
  0
SECTION
  2
ENTITIES
  0
TEXT
  8
PLAIN_
  6
SOLID
 62
     7
 10
476.700500488
 20
-50.388137817
 30
0.000000000
 40
8.000000000
  1
X
 50
-70.000006501
 41
0.715176880
  0
TEXT
  8
PLAIN_
  6
SOLID
 62
     7
 10
471.134948730
 20
52.790710449
 30
0.000000000
 40
12.000000000
  1
5
 50
72.000002004
 41
0.616049488
  0
TEXT
  8
PLAIN_
  6
SOLID
 62
     7
 10
525.102478027
 20
-149.846359253
 30
0.000000000
 40
12.000000000
  1
4
 50
-35.999997587
 41
0.717609485
  0
TEXT
  8
PLAIN_
  6
SOLID
 62
     7
 10
748.024169922
 20
-155.186431885
 30
0.000000000
 40
12.000000000
  1
3
 50
35.999997587
 41
0.617265781
  0
TEXT
  8
PLAIN_
  6
SOLID
 62
     7
 10
807.248291016
 20
59.451461792
 30
0.000000000
 40
12.000000000
  1
2
 50
-72.000002004
 41
0.636726379
  0
TEXT
  8
PLAIN_
  6
SOLID
 62
     7
 10
733.544555664
 20
133.956695557
 30
0.000000000
 40
8.000000000
  1
Y
 50
-36.000001002
 41
0.718217611
  0
TEXT
  8
PLAIN_
  6
SOLID
 62
     7
 10
636.117370605
 20
177.296096802
 30
0.000000000
 40
12.000000000
  1
1
 50
0.000013660
 41
0.408672531
  0
TEXT
  8
PLAIN_
  6
SOLID
 62
     7
 10
29.467658997
 20
9.607416153
 30
0.000000000
 40
16.000000000
  1
GM4
 50
0.000000000
 41
0.820385774
  0
TEXT
  8
PLAIN_
  6
SOLID
 62
     7
 10
-117.290504456
 20
2.515458107
 30
0.000000000
 40
8.000000000
  1
D 40
 50
0.000000000
 41
0.861283422
  0
INSERT
  2
*H1
  8
PLAIN_
 41
1.000000000
 50
0.000000000
 10
0.000000000
 20
0.000000000
 30
0.000000000
  0
TEXT
  8
PLAIN_
  6
SOLID
 62
     7
 10
603.204162598
 20
-57.742004395
 30
0.000000000
 40
8.000000000
  1
B
 50
0.000005009
 41
0.718825758
  0
TEXT
  8
PLAIN_
  6
SOLID
 62
     7
 10
670.723999023
 20
-58.053863525
 30
0.000000000
 40
8.000000000
  1
A
 50
0.000005009
 41
0.820385754
  0
INSERT
  2
*L1
  8
PLAIN_
 41
1.000000000
 50
0.000000000
 10
0.000000000
 20
0.000000000
 30
0.000000000
  0
INSERT
  2
*D1
  8
PLAIN_
 41
1.000000000
 50
0.000000000
 10
0.000000000
 20
0.000000000
 30
0.000000000
  0
INSERT
  2
*D2
  8
PLAIN_
 41
1.000000000
 50
0.000000000
 10
0.000000000
 20
0.000000000
 30
0.000000000
  0
INSERT
  2
*D3
  8
PLAIN_
 41
1.000000000
 50
0.000000000
 10
0.000000000
 20
0.000000000
 30
0.000000000
  0
INSERT
  2
*D4
  8
PLAIN_
 41
1.000000000
 50
0.000000000
 10
0.000000000
 20
0.000000000
 30
0.000000000
  0
INSERT
  2
*D5
  8
PLAIN_
 41
1.000000000
 50
0.000000000
 10
0.000000000
 20
0.000000000
 30
0.000000000
  0
INSERT
  2
*D6
  8
PLAIN_
 41
1.000000000
 50
0.000000000
 10
0.000000000
 20
0.000000000
 30
0.000000000
  0
INSERT
  2
*D7
  8
PLAIN_
 41
1.000000000
 50
0.000000000
 10
0.000000000
 20
0.000000000
 30
0.000000000
  0
INSERT
  2
*D8
  8
PLAIN_
 41
1.000000000
 50
0.000000000
 10
0.000000000
 20
0.000000000
 30
0.000000000
  0
INSERT
  2
*D9
  8
PLAIN_
 41
1.000000000
 50
0.000000000
 10
0.000000000
 20
0.000000000
 30
0.000000000
  0
INSERT
  2
*D10
  8
PLAIN_
 41
1.000000000
 50
0.000000000
 10
0.000000000
 20
0.000000000
 30
0.000000000
  0
INSERT
  2
*D11
  8
PLAIN_
 41
1.000000000
 50
0.000000000
 10
0.000000000
 20
0.000000000
 30
0.000000000
  0
INSERT
  2
*D12
  8
PLAIN_
 41
1.000000000
 50
0.000000000
 10
0.000000000
 20
0.000000000
 30
0.000000000
  0
INSERT
  2
*D13
  8
PLAIN_
 41
1.000000000
 50
0.000000000
 10
0.000000000
 20
0.000000000
 30
0.000000000
  0
INSERT
  2
*D14
  8
PLAIN_
 41
1.000000000
 50
0.000000000
 10
0.000000000
 20
0.000000000
 30
0.000000000
  0
INSERT
  2
*D15
  8
PLAIN_
 41
1.000000000
 50
0.000000000
 10
0.000000000
 20
0.000000000
 30
0.000000000
  0
INSERT
  2
*L2
  8
PLAIN_
 41
1.000000000
 50
0.000000000
 10
0.000000000
 20
0.000000000
 30
0.000000000
  0
INSERT
  2
*D16
  8
PLAIN_
 41
1.000000000
 50
0.000000000
 10
0.000000000
 20
0.000000000
 30
0.000000000
  0
INSERT
  2
*D17
  8
PLAIN_
 41
1.000000000
 50
0.000000000
 10
0.000000000
 20
0.000000000
 30
0.000000000
  0
INSERT
  2
*D18
  8
PLAIN_
 41
1.000000000
 50
0.000000000
 10
0.000000000
 20
0.000000000
 30
0.000000000
  0
INSERT
  2
*D19
  8
PLAIN_
 41
1.000000000
 50
0.000000000
 10
0.000000000
 20
0.000000000
 30
0.000000000
  0
INSERT
  2
*D20
  8
PLAIN_
 41
1.000000000
 50
0.000000000
 10
0.000000000
 20
0.000000000
 30
0.000000000
  0
INSERT
  2
*D21
  8
PLAIN_
 41
1.000000000
 50
0.000000000
 10
0.000000000
 20
0.000000000
 30
0.000000000
  0
INSERT
  2
*D22
  8
PLAIN_
 41
1.000000000
 50
0.000000000
 10
0.000000000
 20
0.000000000
 30
0.000000000
  0
INSERT
  2
*D23
  8
PLAIN_
 41
1.000000000
 50
0.000000000
 10
0.000000000
 20
0.000000000
 30
0.000000000
  0
INSERT
  2
*D24
  8
PLAIN_
 41
1.000000000
 50
0.000000000
 10
0.000000000
 20
0.000000000
 30
0.000000000
  0
INSERT
  2
*D25
  8
PLAIN_
 41
1.000000000
 50
0.000000000
 10
0.000000000
 20
0.000000000
 30
0.000000000
  0
INSERT
  2
*D26
  8
PLAIN_
 41
1.000000000
 50
0.000000000
 10
0.000000000
 20
0.000000000
 30
0.000000000
  0
INSERT
  2
*L3
  8
PLAIN_
 41
1.000000000
 50
0.000000000
 10
0.000000000
 20
0.000000000
 30
0.000000000
  0
INSERT
  2
*L4
  8
PLAIN_
 41
1.000000000
 50
0.000000000
 10
0.000000000
 20
0.000000000
 30
0.000000000
  0
ARC
  8
PLAIN_
  6
SOLID
 62
     7
 10
659.409446716
 20
-164.159039021
 30
0.000000000
 40
1.500000000
 50
0.000000000
 51
90.000000000
  0
ARC
  8
PLAIN_
  6
SOLID
 62
     7
 10
659.409446716
 20
-193.159039021
 30
0.000000000
 40
1.500000000
 50
270.000000000
 51
0.000000000
  0
ARC
  8
PLAIN_
  6
SOLID
 62
     7
 10
620.409446716
 20
-193.159039021
 30
0.000000000
 40
1.500000000
 50
180.000000000
 51
270.000000000
  0
ARC
  8
PLAIN_
  6
SOLID
 62
     7
 10
620.409446716
 20
-164.159039021
 30
0.000000000
 40
1.500000000
 50
90.000000000
 51
180.000000000
  0
LINE
  8
PLAIN_
  6
SOLID
 62
     7
 10
660.909446716
 20
-164.159039021
 30
0.000000000
 11
660.909446716
 21
-193.159039021
 31
0.000000000
  0
LINE
  8
PLAIN_
  6
SOLID
 62
     7
 10
618.909446716
 20
-164.159039021
 30
0.000000000
 11
618.909446716
 21
-193.159039021
 31
0.000000000
  0
ARC
  8
PLAIN_
  6
SOLID
 62
     7
 10
-39.000011444
 20
-110.578368128
 30
0.000000000
 40
4.000000000
 50
0.000000000
 51
86.758834320
  0
LINE
  8
PLAIN_
  6
SOLID
 62
     7
 10
-35.000011444
 20
-142.601622874
 30
0.000000000
 11
-35.000011444
 21
-110.578368128
 31
0.000000000
  0
ARC
  8
PLAIN_
  6
SOLID
 62
     7
 10
-38.000011444
 20
-161.601639083
 30
0.000000000
 40
3.000000000
 50
0.000000000
 51
90.000000000
  0
ARC
  8
PLAIN_
  6
SOLID
 62
     7
 10
-38.000011444
 20
-123.601639083
 30
0.000000000
 40
3.000000000
 50
270.000000000
 51
0.000000000
  0
LINE
  8
PLAIN_
  6
SOLID
 62
     7
 10
-38.000011444
 20
-158.601639083
 30
0.000000000
 11
-38.000011444
 21
-126.601639083
 31
0.000000000
  0
LINE
  8
PLAIN_
  6
SOLID
 62
     7
 10
-132.214271545
 20
33.069252014
 30
0.000000000
 11
-132.214271545
 21
51.473411560
 31
0.000000000
  0
LINE
  8
PLAIN_
  6
SOLID
 62
     7
 10
-142.500038147
 20
-61.500000000
 30
0.000000000
 11
-142.500038147
 21
-43.500000000
 31
0.000000000
  0
ARC
  8
PLAIN_
  6
SOLID
 62
     7
 10
-142.500038147
 20
-60.500000000
 30
0.000000000
 40
1.000000000
 50
180.000000000
 51
269.999982014
  0
LINE
  8
PLAIN_
  6
L_DASH
 62
     7
 10
-137.214271545
 20
-10.498397827
 30
0.000000000
 11
-133.908973679
 21
-16.223388478
 31
0.000000000
  0
ARC
  8
PLAIN_
  6
SOLID
 62
     7
 10
-143.214271545
 20
50.473411560
 30
0.000000000
 40
1.000000000
 50
90.000017986
 51
180.000000000
  0
LINE
  8
PLAIN_
  6
L_DASH
 62
     7
 10
-38.000011444
 20
-152.601622874
 30
0.000000000
 11
-26.847587585
 21
-152.601622874
 31
0.000000000
  0
LINE
  8
PLAIN_
  6
L_DASH
 62
     7
 10
-38.000011444
 20
-132.601622874
 30
0.000000000
 11
-27.385536194
 21
-132.601622874
 31
0.000000000
  0
LINE
  8
PLAIN_
  6
L_DASH
 62
     7
 10
-36.466426849
 20
-134.135222728
 30
0.000000000
 11
-36.466426849
 21
-151.068023021
 31
0.000000000
  0
LINE
  8
PLAIN_
  6
L_DASH
 62
     7
 10
-36.466426849
 20
-151.068023021
 30
0.000000000
 11
-38.000011444
 21
-152.601622874
 31
0.000000000
  0
LINE
  8
PLAIN_
  6
L_DASH
 62
     7
 10
-23.512283325
 20
-151.068023021
 30
0.000000000
 11
-36.466426849
 21
-151.068023021
 31
0.000000000
  0
LINE
  8
PLAIN_
  6
L_DASH
 62
     7
 10
-36.466426849
 20
-134.135222728
 30
0.000000000
 11
-24.265419006
 21
-134.135222728
 31
0.000000000
  0
LINE
  8
PLAIN_
  6
L_DASH
 62
     7
 10
-38.000011444
 20
-132.601622874
 30
0.000000000
 11
-36.466426849
 21
-134.135222728
 31
0.000000000
  0
LINE
  8
PLAIN_
  6
CENTER
 62
     7
 10
-14.689880371
 20
-142.601622874
 30
0.000000000
 11
-48.150474548
 21
-142.601622874
 31
0.000000000
  0
LINE
  8
PLAIN_
  6
SOLID
 62
     7
 10
-144.214271545
 20
34.473403931
 30
0.000000000
 11
-144.214271545
 21
50.473411560
 31
0.000000000
  0
LINE
  8
PLAIN_
  6
SOLID
 62
     7
 10
-132.214271545
 20
33.473403931
 30
0.000000000
 11
-143.214271545
 21
33.473403931
 31
0.000000000
  0
ARC
  8
PLAIN_
  6
SOLID
 62
     7
 10
639.909385681
 20
0.341081142
 30
0.000000000
 40
87.500000000
 50
41.336468039
 51
255.112053213
  0
LINE
  8
PLAIN_
  6
L_DASH
 62
     7
 10
724.410886464
 20
160.341038147
 30
0.000000000
 11
639.909388741
 21
160.341038147
 31
0.000000000
  0
LINE
  8
PLAIN_
  6
SOLID
 62
     7
 10
149.499938965
 20
132.499998093
 30
0.000000000
 11
150.499938965
 21
131.499937057
 31
0.000000000
  0
LINE
  8
PLAIN_
  6
SOLID
 62
     7
 10
-60.000025295
 20
191.303841013
 30
0.000000000
 11
-60.000025295
 21
108.000000000
 31
0.000000000
  0
LINE
  8
PLAIN_
  6
SOLID
 62
     7
 10
-63.000003810
 20
-105.212853557
 30
0.000000000
 11
-38.773856056
 21
-106.584766528
 31
0.000000000
  0
LINE
  8
PLAIN_
  6
SOLID
 62
     7
 10
-35.000003815
 20
-197.499999046
 30
0.000000000
 11
-35.000003815
 21
-142.601622874
 31
0.000000000
  0
ARC
  8
PLAIN_
  6
SOLID
 62
     7
 10
639.909385681
 20
0.341081142
 30
0.000000000
 40
87.500000000
 50
284.503107040
 51
328.947016285
  0
CIRCLE
  8
PLAIN_
  6
SOLID
 62
     7
 10
723.100791931
 20
114.844132423
 30
0.000000000
 40
13.250000000
  0
LINE
  8
PLAIN_
  6
SOLID
 62
     7
 10
709.850791931
 20
122.494023490
 30
0.000000000
 11
723.100791931
 21
130.143914557
 31
0.000000000
  0
ARC
  8
PLAIN_
  6
SOLID
 62
     7
 10
-63.000025295
 20
108.000000000
 30
0.000000000
 40
3.000000000
 50
270.000410238
 51
0.000000000
  0
LINE
  8
PLAIN_
  6
SOLID
 62
     7
 10
723.100791931
 20
130.143914557
 30
0.000000000
 11
736.350791931
 21
122.494023490
 31
0.000000000
  0
LINE
  8
PLAIN_
  6
SOLID
 62
     7
 10
736.350791931
 20
122.494023490
 30
0.000000000
 11
736.350791931
 21
107.194241357
 31
0.000000000
  0
LINE
  8
PLAIN_
  6
SOLID
 62
     7
 10
560.010572776
 20
160.341092611
 30
0.000000000
 11
555.367409945
 21
160.341092611
 31
0.000000000
  0
LINE
  8
PLAIN_
  6
SOLID
 62
     7
 10
140.499938965
 20
132.499998093
 30
0.000000000
 11
149.499938965
 21
132.499998093
 31
0.000000000
  0
LINE
  8
PLAIN_
  6
SOLID
 62
     7
 10
150.499938965
 20
0.000000000
 30
0.000000000
 11
150.499938965
 21
131.499937057
 31
0.000000000
  0
LINE
  8
PLAIN_
  6
SOLID
 62
     7
 10
150.499938965
 20
59.999998093
 30
0.000000000
 11
152.499938965
 21
57.999998093
 31
0.000000000
  0
ARC
  8
PLAIN_
  6
CENTER
 62
     7
 10
639.909385681
 20
0.341081142
 30
0.000000000
 40
155.000000000
 50
118.116813766
 51
133.779303894
  0
LINE
  8
PLAIN_
  6
L_DASH
 62
     7
 10
818.203329975
 20
-39.890852306
 30
0.000000000
 11
816.091802382
 21
-46.389466019
 31
0.000000000
  0
ARC
  8
PLAIN_
  6
L_DASH
 62
     7
 10
803.937482231
 20
-35.255597391
 30
0.000000000
 40
15.000000000
 50
342.000000000
 51
18.000000000
  0
ARC
  8
PLAIN_
  6
SOLID
 62
     7
 10
-143.214271545
 20
34.473403931
 30
0.000000000
 40
1.000000000
 50
180.000000000
 51
269.999982014
  0
ARC
  8
PLAIN_
  6
SOLID
 62
     7
 10
-131.214271545
 20
33.069252014
 30
0.000000000
 40
1.000000000
 50
180.000000000
 51
267.999269342
  0
ARC
  8
PLAIN_
  6
SOLID
 62
     7
 10
-55.000025295
 20
191.303841013
 30
0.000000000
 40
5.000000000
 50
98.000000000
 51
180.000000000
  0
LINE
  8
PLAIN_
  6
SOLID
 62
     7
 10
-132.214271545
 20
51.473411560
 30
0.000000000
 11
-143.214271545
 21
51.473411560
 31
0.000000000
  0
LINE
  8
PLAIN_
  6
SOLID
 62
     7
 10
-143.500038147
 20
-60.500000000
 30
0.000000000
 11
-143.500038147
 21
-44.500000000
 31
0.000000000
  0
ARC
  8
PLAIN_
  6
SOLID
 62
     7
 10
-142.500038147
 20
-44.500000000
 30
0.000000000
 40
1.000000000
 50
90.000017986
 51
180.000000000
  0
ARC
  8
PLAIN_
  6
SOLID
 62
     7
 10
-20.924917888
 20
206.191060775
 30
0.000000000
 40
5.000000000
 50
278.000000000
 51
315.000000000
  0
LINE
  8
PLAIN_
  6
L_DASH
 62
     7
 10
-137.214271545
 20
36.748413086
 30
0.000000000
 11
-133.908973679
 21
42.473403737
 31
0.000000000
  0
LINE
  8
PLAIN_
  6
SOLID
 62
     7
 10
-143.214271545
 20
33.473403931
 30
0.000000000
 11
-143.214271545
 21
51.473411560
 31
0.000000000
  0
LINE
  8
PLAIN_
  6
L_DASH
 62
     7
 10
-137.214271545
 20
39.610900879
 30
0.000000000
 11
-144.214271545
 21
39.610900879
 31
0.000000000
  0
LINE
  8
PLAIN_
  6
L_DASH
 62
     7
 10
785.681519752
 20
-36.508566225
 30
0.000000000
 11
816.091802382
 21
-46.389466019
 31
0.000000000
  0
LINE
  8
PLAIN_
  6
L_DASH
 62
     7
 10
818.190787190
 20
-30.581916000
 30
0.000000000
 11
792.078388343
 21
49.783784046
 31
0.000000000
  0
LINE
  8
PLAIN_
  6
L_DASH
 62
     7
 10
-137.214271545
 20
36.748413086
 30
0.000000000
 11
-144.214271545
 21
36.748413086
 31
0.000000000
  0
LINE
  8
PLAIN_
  6
L_DASH
 62
     7
 10
-137.214271545
 20
36.748413086
 30
0.000000000
 11
-137.214271545
 21
48.198402405
 31
0.000000000
  0
LINE
  8
PLAIN_
  6
L_DASH
 62
     7
 10
-137.214271545
 20
48.198402405
 30
0.000000000
 11
-144.214271545
 21
48.198402405
 31
0.000000000
  0
LINE
  8
PLAIN_
  6
L_DASH
 62
     7
 10
-137.214271545
 20
45.335899353
 30
0.000000000
 11
-144.214271545
 21
45.335899353
 31
0.000000000
  0
LINE
  8
PLAIN_
  6
L_DASH
 62
     7
 10
-137.214271545
 20
48.198402405
 30
0.000000000
 11
-133.908973732
 21
42.473404021
 31
0.000000000
  0
LINE
  8
PLAIN_
  6
SOLID
 62
     7
 10
-132.214271545
 20
-7.223388672
 30
0.000000000
 11
-143.214271545
 21
-7.223388672
 31
0.000000000
  0
LINE
  8
PLAIN_
  6
L_DASH
 62
     7
 10
-137.214271545
 20
-21.948379517
 30
0.000000000
 11
-133.908973679
 21
-16.223388866
 31
0.000000000
  0
ARC
  8
PLAIN_
  6
SOLID
 62
     7
 10
-137.316688538
 20
22.000000000
 30
0.000000000
 40
3.000000000
 50
269.999982014
 51
301.002692185
  0
LINE
  8
PLAIN_
  6
SOLID
 62
     7
 10
-127.500038147
 20
26.956481934
 30
0.000000000
 11
-127.500038147
 21
31.938941956
 31
0.000000000
  0
ARC
  8
PLAIN_
  6
SOLID
 62
     7
 10
-131.214271545
 20
51.877555847
 30
0.000000000
 40
1.000000000
 50
92.000730658
 51
180.000000000
  0
LINE
  8
PLAIN_
  6
SOLID
 62
     7
 10
-137.316688538
 20
19.000000000
 30
0.000000000
 11
-144.500038147
 21
19.000000000
 31
0.000000000
  0
LINE
  8
PLAIN_
  6
SOLID
 62
     7
 10
-70.500007629
 20
64.700004578
 30
0.000000000
 11
-70.789894115
 21
64.989891064
 31
0.000000000
  0
LINE
  8
PLAIN_
  6
SOLID
 62
     7
 10
-132.214271545
 20
32.956710815
 30
0.000000000
 11
-132.214271545
 21
51.877555847
 31
0.000000000
  0
LINE
  8
PLAIN_
  6
SOLID
 62
     7
 10
-70.500007629
 20
-64.500000000
 30
0.000000000
 11
-70.500007629
 21
65.000000000
 31
0.000000000
  0
LINE
  8
PLAIN_
  6
SOLID
 62
     7
 10
-132.214271545
 20
-25.223388672
 30
0.000000000
 11
-143.214271545
 21
-25.223388672
 31
0.000000000
  0
LINE
  8
PLAIN_
  6
SOLID
 62
     7
 10
-143.214271545
 20
-25.223388672
 30
0.000000000
 11
-143.214271545
 21
-7.223388672
 31
0.000000000
  0
LINE
  8
PLAIN_
  6
L_DASH
 62
     7
 10
-137.214271545
 20
-21.948379517
 30
0.000000000
 11
-144.214271545
 21
-21.948379517
 31
0.000000000
  0
LINE
  8
PLAIN_
  6
SOLID
 62
     7
 10
-144.214271545
 20
-24.223388672
 30
0.000000000
 11
-144.214271545
 21
-8.223388672
 31
0.000000000
  0
ARC
  8
PLAIN_
  6
SOLID
 62
     7
 10
-143.214271545
 20
-8.223388672
 30
0.000000000
 40
1.000000000
 50
90.000017986
 51
180.000000000
  0
LINE
  8
PLAIN_
  6
SOLID
 62
     7
 10
227.499983788
 20
29.000000715
 30
0.000000000
 11
224.299981819
 21
32.200003762
 31
0.000000000
  0
LINE
  8
PLAIN_
  6
SOLID
 62
     7
 10
229.499983788
 20
-28.999999285
 30
0.000000000
 11
230.499983770
 21
-27.999999302
 31
0.000000000
  0
ARC
  8
PLAIN_
  6
SOLID
 62
     7
 10
-143.214271545
 20
-24.223388672
 30
0.000000000
 40
1.000000000
 50
180.000000000
 51
269.999982014
  0
LINE
  8
PLAIN_
  6
L_DASH
 62
     7
 10
-137.214271545
 20
-19.085891724
 30
0.000000000
 11
-144.214271545
 21
-19.085891724
 31
0.000000000
  0
LINE
  8
PLAIN_
  6
SOLID
 62
     7
 10
227.499983788
 20
-29.000000715
 30
0.000000000
 11
224.299981874
 21
-32.200003708
 31
0.000000000
  0
LINE
  8
PLAIN_
  6
L_DASH
 62
     7
 10
792.078443590
 20
49.783790264
 30
0.000000000
 11
765.953531956
 21
130.188000710
 31
0.000000000
  0
LINE
  8
PLAIN_
  6
L_DASH
 62
     7
 10
760.504462995
 20
137.688000710
 30
0.000000000
 11
754.976471542
 21
141.704321596
 31
0.000000000
  0
ARC
  8
PLAIN_
  6
L_DASH
 62
     7
 10
751.687684211
 20
125.552745795
 30
0.000000000
 40
15.000000000
 50
18.000000000
 51
54.000000000
  0
LINE
  8
PLAIN_
  6
L_DASH
 62
     7
 10
-137.214271545
 20
-21.948379517
 30
0.000000000
 11
-137.214271545
 21
-10.498397827
 31
0.000000000
  0
LINE
  8
PLAIN_
  6
SOLID
 62
     7
 10
230.499979973
 20
0.000000715
 30
0.000000000
 11
230.499983788
 21
28.000002623
 31
0.000000000
  0
LINE
  8
PLAIN_
  6
SOLID
 62
     7
 10
229.499983788
 20
29.000000715
 30
0.000000000
 11
230.499983770
 21
28.000000732
 31
0.000000000
  0
LINE
  8
PLAIN_
  6
SOLID
 62
     7
 10
227.499983788
 20
-29.000000715
 30
0.000000000
 11
229.499983788
 21
-29.000000715
 31
0.000000000
  0
LINE
  8
PLAIN_
  6
L_DASH
 62
     7
 10
656.742401993
 20
-181.658887546
 30
0.000000000
 11
649.909355164
 21
-181.658887546
 31
0.000000000
  0
LINE
  8
PLAIN_
  6
L_DASH
 62
     7
 10
-137.214271545
 20
-10.498397827
 30
0.000000000
 11
-144.214271545
 21
-10.498397827
 31
0.000000000
  0
ARC
  8
PLAIN_
  6
SOLID
 62
     7
 10
555.367409945
 20
145.341092611
 30
0.000000000
 40
15.000000000
 50
90.000000000
 51
126.000000000
  0
LINE
  8
PLAIN_
  6
SOLID
 62
     7
 10
169.499983788
 20
29.200001478
 30
0.000000000
 11
227.299971581
 21
29.200001478
 31
0.000000000
  0
LINE
  8
PLAIN_
  6
L_DASH
 62
     7
 10
-137.214271545
 20
-13.360885620
 30
0.000000000
 11
-144.214271545
 21
-13.360885620
 31
0.000000000
  0
LINE
  8
PLAIN_
  6
SOLID
 62
     7
 10
-121.500007629
 20
0.314712524
 30
0.000000000
 11
-121.500007629
 21
25.935287476
 31
0.000000000
  0
ARC
  8
PLAIN_
  6
L_DASH
 62
     7
 10
656.742401993
 20
-166.658887546
 30
0.000000000
 40
15.000000000
 50
270.000000000
 51
306.000000000
  0
LINE
  8
PLAIN_
  6
L_DASH
 62
     7
 10
665.591850593
 20
-178.770339131
 30
0.000000000
 11
733.954998301
 21
-129.101604972
 31
0.000000000
  0
ARC
  8
PLAIN_
  6
L_DASH
 62
     7
 10
724.451308147
 20
145.341092611
 30
0.000000000
 40
15.000000000
 50
54.000000000
 51
90.000000000
  0
LINE
  8
PLAIN_
  6
L_DASH
 62
     7
 10
733.268086932
 20
157.476347527
 30
0.000000000
 11
738.796078385
 21
153.460026642
 31
0.000000000
  0
LINE
  8
PLAIN_
  6
L_DASH
 62
     7
 10
779.477693182
 20
-55.522033177
 30
0.000000000
 11
809.911501703
 21
-65.410576997
 31
0.000000000
  0
ARC
  8
PLAIN_
  6
L_DASH
 62
     7
 10
782.567863125
 20
-46.011468014
 30
0.000000000
 40
10.000000000
 50
71.858449055
 51
252.000000000
  0
LINE
  8
PLAIN_
  6
CENTER
 62
     7
 10
568.137838570
 20
99.126140990
 30
0.000000000
 11
517.895056405
 21
168.279397997
 31
0.000000000
  0
LINE
  8
PLAIN_
  6
L_DASH
 62
     7
 10
720.001549667
 20
127.591451871
 30
0.000000000
 11
738.796137940
 21
153.459983373
 31
0.000000000
  0
ARC
  8
PLAIN_
  6
SOLID
 62
     7
 10
-127.500038147
 20
0.314712524
 30
0.000000000
 40
6.000000000
 50
272.000141441
 51
359.999984518
  0
ARC
  8
PLAIN_
  6
SOLID
 62
     7
 10
-127.500038147
 20
25.935287476
 30
0.000000000
 40
6.000000000
 50
359.999991349
 51
88.000134955
  0
LINE
  8
PLAIN_
  6
CENTER
 62
     7
 10
-94.461219788
 20
-16.223388672
 30
0.000000000
 11
-147.857154846
 21
-16.223388672
 31
0.000000000
  0
LINE
  8
PLAIN_
  6
CENTER
 62
     7
 10
-94.453590393
 20
42.473403931
 30
0.000000000
 11
-147.857154846
 21
42.473403931
 31
0.000000000
  0
LINE
  8
PLAIN_
  6
CENTER
 62
     7
 10
-58.785392761
 20
0.000000000
 30
0.000000000
 11
-152.500007629
 21
0.000000000
 31
0.000000000
  0
LINE
  8
PLAIN_
  6
SOLID
 62
     7
 10
-111.565132141
 20
-65.625480320
 30
0.000000000
 11
-123.500007629
 21
-65.000000000
 31
0.000000000
  0
LINE
  8
PLAIN_
  6
SOLID
 62
     7
 10
-111.565132141
 20
-40.374519680
 30
0.000000000
 11
-123.500007629
 21
-41.000000000
 31
0.000000000
  0
ARC
  8
PLAIN_
  6
SOLID
 62
     7
 10
-147.499977112
 20
-21.196166992
 30
0.000000000
 40
3.000000000
 50
359.999308330
 51
60.000286716
  0
LINE
  8
PLAIN_
  6
SOLID
 62
     7
 10
-144.500038147
 20
4.000000000
 30
0.000000000
 11
-144.500038147
 21
-21.500000000
 31
0.000000000
  0
LINE
  8
PLAIN_
  6
L_DASH
 62
     7
 10
736.167343469
 20
115.815777776
 30
0.000000000
 11
754.976471542
 21
141.704321596
 31
0.000000000
  0
ARC
  8
PLAIN_
  6
SOLID
 62
     7
 10
-144.500038147
 20
-16.000000000
 30
0.000000000
 40
3.000000000
 50
180.000000000
 51
240.000254387
  0
ARC
  8
PLAIN_
  6
SOLID
 62
     7
 10
-126.500038147
 20
-21.500000000
 30
0.000000000
 40
18.000000000
 50
180.000000000
 51
218.010600207
  0
ARC
  8
PLAIN_
  6
SOLID
 62
     7
 10
-131.214271545
 20
-25.627532959
 30
0.000000000
 40
1.000000000
 50
180.000000000
 51
267.999269342
  0
ARC
  8
PLAIN_
  6
SOLID
 62
     7
 10
-148.561149597
 20
-38.742603098
 30
0.000000000
 40
10.000000000
 50
360.000000000
 51
38.010610225
  0
ARC
  8
PLAIN_
  6
SOLID
 62
     7
 10
-131.214271545
 20
-6.819244385
 30
0.000000000
 40
1.000000000
 50
92.000730658
 51
180.000000000
  0
LINE
  8
PLAIN_
  6
SOLID
 62
     7
 10
-91.561149685
 20
-68.000000087
 30
0.000000000
 11
-88.061149291
 21
-64.500000000
 31
0.000000000
  0
LINE
  8
PLAIN_
  6
SOLID
 62
     7
 10
-132.214271545
 20
-25.627532959
 30
0.000000000
 11
-132.214271545
 21
-6.819244385
 31
0.000000000
  0
ARC
  8
PLAIN_
  6
SOLID
 62
     7
 10
-131.214271545
 20
-25.627532959
 30
0.000000000
 40
1.000000000
 50
180.000000000
 51
267.999269342
  0
LINE
  8
PLAIN_
  6
SOLID
 62
     7
 10
-70.500007629
 20
-64.500000000
 30
0.000000000
 11
-70.500007629
 21
10.439288932
 31
0.000000000
  0
LINE
  8
PLAIN_
  6
SOLID
 62
     7
 10
-136.561149510
 20
-68.000000087
 30
0.000000000
 11
-138.561149597
 21
-66.000000175
 31
0.000000000
  0
LINE
  8
PLAIN_
  6
SOLID
 62
     7
 10
-138.561149597
 20
-66.000000175
 30
0.000000000
 11
-138.561149597
 21
-38.742564052
 31
0.000000000
  0
ARC
  8
PLAIN_
  6
SOLID
 62
     7
 10
-123.500007629
 20
-53.000000000
 30
0.000000000
 40
12.000000000
 50
90.000000000
 51
270.000000000
  0
LINE
  8
PLAIN_
  6
SOLID
 62
     7
 10
-91.561149685
 20
-68.000000087
 30
0.000000000
 11
-136.561149510
 21
-68.000000087
 31
0.000000000
  0
LINE
  8
PLAIN_
  6
SOLID
 62
     7
 10
-121.500007629
 20
0.314712524
 30
0.000000000
 11
-121.500007629
 21
12.079382847
 31
0.000000000
  0
LINE
  8
PLAIN_
  6
L_DASH
 62
     7
 10
733.955021286
 20
-129.101655593
 30
0.000000000
 11
802.350927897
 21
-79.409120699
 31
0.000000000
  0
LINE
  8
PLAIN_
  6
SOLID
 62
     7
 10
546.550631161
 20
157.476347527
 30
0.000000000
 11
541.022639708
 21
153.460026642
 31
0.000000000
  0
LINE
  8
PLAIN_
  6
L_DASH
 62
     7
 10
807.799996857
 20
-71.909120699
 30
0.000000000
 11
809.911501703
 21
-65.410576997
 31
0.000000000
  0
ARC
  8
PLAIN_
  6
L_DASH
 62
     7
 10
793.534149113
 20
-67.273865783
 30
0.000000000
 40
15.000000000
 50
306.000000000
 51
342.000000000
  0
ARC
  8
PLAIN_
  6
L_DASH
 62
     7
 10
728.077173525
 20
121.693630299
 30
0.000000000
 40
10.000000000
 50
143.858449055
 51
324.000000000
  0
ARC
  8
PLAIN_
  6
SOLID
 62
     7
 10
-127.500038147
 20
0.314712524
 30
0.000000000
 40
6.000000000
 50
272.000141441
 51
359.999984518
  0
LINE
  8
PLAIN_
  6
SOLID
 62
     7
 10
543.636931186
 20
115.835782701
 30
0.000000000
 11
524.842342914
 21
141.704314202
 31
0.000000000
  0
LINE
  8
PLAIN_
  6
SOLID
 62
     7
 10
559.831767781
 20
127.571482822
 30
0.000000000
 11
541.022639708
 21
153.460026642
 31
0.000000000
  0
LINE
  8
PLAIN_
  6
SOLID
 62
     7
 10
-131.249183655
 20
-5.819854736
 30
0.000000000
 11
-90.395301416
 21
-4.078918516
 31
0.000000000
  0
LINE
  8
PLAIN_
  6
SOLID
 62
     7
 10
-131.249183655
 20
-26.626922607
 30
0.000000000
 11
-90.395301416
 21
-28.367858828
 31
0.000000000
  0
ARC
  8
PLAIN_
  6
SOLID
 62
     7
 10
-90.500007629
 20
-31.366012573
 30
0.000000000
 40
3.000000000
 50
0.000008651
 51
87.999851729
  0
ARC
  8
PLAIN_
  6
SOLID
 62
     7
 10
-90.500007629
 20
-1.080734253
 30
0.000000000
 40
3.000000000
 50
272.000127780
 51
359.999991349
  0
LINE
  8
PLAIN_
  6
SOLID
 62
     7
 10
-87.500007629
 20
-60.463912964
 30
0.000000000
 11
-87.500007629
 21
-31.366012573
 31
0.000000000
  0
LINE
  8
PLAIN_
  6
SOLID
 62
     7
 10
-70.500007629
 20
-64.500000000
 30
0.000000000
 11
-88.061149291
 21
-64.500000000
 31
0.000000000
  0
LINE
  8
PLAIN_
  6
CENTER
 62
     7
 10
-94.461219788
 20
-16.223388672
 30
0.000000000
 11
-147.857154846
 21
-16.223388672
 31
0.000000000
  0
LINE
  8
PLAIN_
  6
CENTER
 62
     7
 10
-58.785392761
 20
-0.000000000
 30
0.000000000
 11
-152.500007629
 21
-0.000000000
 31
0.000000000
  0
LINE
  8
PLAIN_
  6
SOLID
 62
     7
 10
183.499968529
 20
-8.888000727
 30
0.000000000
 11
224.944968224
 21
-8.888000727
 31
0.000000000
  0
LINE
  8
PLAIN_
  6
SOLID
 62
     7
 10
226.055977867
 20
-10.554501931
 30
0.000000000
 11
226.055977867
 21
10.554499229
 31
0.000000000
  0
LINE
  8
PLAIN_
  6
SOLID
 62
     7
 10
224.944975006
 20
8.887999137
 30
0.000000000
 11
224.944975006
 21
-8.888000780
 31
0.000000000
  0
LINE
  8
PLAIN_
  6
SOLID
 62
     7
 10
226.055983543
 20
9.999000258
 30
0.000000000
 11
224.944983427
 21
8.887997987
 31
0.000000000
  0
ARC
  8
PLAIN_
  6
SOLID
 62
     7
 10
-133.500038147
 20
26.956481934
 30
0.000000000
 40
6.000000000
 50
286.957762348
 51
359.999991349
  0
ARC
  8
PLAIN_
  6
SOLID
 62
     7
 10
-126.500038147
 20
4.000000000
 30
0.000000000
 40
18.000000000
 50
106.957762348
 51
180.000010018
  0
ARC
  8
PLAIN_
  6
SOLID
 62
     7
 10
-144.500038147
 20
16.000000000
 30
0.000000000
 40
3.000000000
 50
90.000017986
 51
180.000000000
  0
LINE
  8
PLAIN_
  6
SOLID
 62
     7
 10
-147.500038147
 20
-16.000000000
 30
0.000000000
 11
-147.500038147
 21
16.000000000
 31
0.000000000
  0
ARC
  8
PLAIN_
  6
SOLID
 62
     7
 10
-90.500007629
 20
27.645047156
 30
0.000000000
 40
3.000000000
 50
0.000000000
 51
88.000008413
  0
LINE
  8
PLAIN_
  6
L_DASH
 62
     7
 10
472.018817601
 20
-71.909152010
 30
0.000000000
 11
469.907290007
 21
-65.410538297
 31
0.000000000
  0
ARC
  8
PLAIN_
  6
L_DASH
 62
     7
 10
486.284665345
 20
-67.273897094
 30
0.000000000
 40
15.000000000
 50
198.000000000
 51
234.000000000
  0
LINE
  8
PLAIN_
  6
L_DASH
 62
     7
 10
477.500620403
 20
-79.432867217
 30
0.000000000
 11
545.863768111
 21
-129.101601375
 31
0.000000000
  0
ARC
  8
PLAIN_
  6
SOLID
 62
     7
 10
-31.000003815
 20
-197.499999046
 30
0.000000000
 40
4.000000000
 50
180.000000000
 51
270.000000000
  0
LINE
  8
PLAIN_
  6
SOLID
 62
     7
 10
-17.389383982
 20
202.655526869
 30
0.000000000
 11
-15.044971886
 21
204.999938965
 31
0.000000000
  0
LINE
  8
PLAIN_
  6
SOLID
 62
     7
 10
-131.249183655
 20
32.069862366
 30
0.000000000
 11
-90.395309580
 21
30.643219652
 31
0.000000000
  0
ARC
  8
PLAIN_
  6
SOLID
 62
     7
 10
-84.500007629
 20
61.509252648
 30
0.000000000
 40
3.000000000
 50
92.000174209
 51
180.000000000
  0
LINE
  8
PLAIN_
  6
SOLID
 62
     7
 10
-84.604715235
 20
64.507424811
 30
0.000000000
 11
-70.789894050
 21
64.989891052
 31
0.000000000
  0
LINE
  8
PLAIN_
  6
SOLID
 62
     7
 10
-87.500007629
 20
-1.080734253
 30
0.000000000
 11
-87.500007629
 21
27.645047156
 31
0.000000000
  0
ARC
  8
PLAIN_
  6
SOLID
 62
     7
 10
-90.500007629
 20
57.301766949
 30
0.000000000
 40
3.000000000
 50
272.000000333
 51
0.000000000
  0
LINE
  8
PLAIN_
  6
SOLID
 62
     7
 10
-87.500007629
 20
57.301766949
 30
0.000000000
 11
-87.500007629
 21
61.509252648
 31
0.000000000
  0
LINE
  8
PLAIN_
  6
SOLID
 62
     7
 10
-131.249183655
 20
52.876945496
 30
0.000000000
 11
-90.395309122
 21
54.303594469
 31
0.000000000
  0
LINE
  8
PLAIN_
  6
CENTER
 62
     7
 10
-137.930146121
 20
-52.500000000
 30
0.000000000
 11
-147.142616272
 21
-52.500000000
 31
0.000000000
  0
LINE
  8
PLAIN_
  6
CENTER
 62
     7
 10
-117.730875272
 20
-53.000000000
 30
0.000000000
 11
-127.418926808
 21
-53.000000000
 31
0.000000000
  0
LINE
  8
PLAIN_
  6
CENTER
 62
     7
 10
-123.500007629
 20
-59.913506086
 30
0.000000000
 11
-123.500007629
 21
-47.312707030
 31
0.000000000
  0
LINE
  8
PLAIN_
  6
L_DASH
 62
     7
 10
-138.561149597
 20
-55.362503052
 30
0.000000000
 11
-143.500038147
 21
-55.362503052
 31
0.000000000
  0
LINE
  8
PLAIN_
  6
SOLID
 62
     7
 10
-138.561149597
 20
-61.500000000
 30
0.000000000
 11
-142.500038147
 21
-61.500000000
 31
0.000000000
  0
LINE
  8
PLAIN_
  6
L_DASH
 62
     7
 10
545.863727070
 20
-129.101638879
 30
0.000000000
 11
614.259633681
 21
-178.794173773
 31
0.000000000
  0
LINE
  8
PLAIN_
  6
SOLID
 62
     7
 10
-0.000000954
 20
-203.999969482
 30
0.000000000
 11
-0.000000954
 21
-88.069785118
 31
0.000000000
  0
LINE
  8
PLAIN_
  6
L_DASH
 62
     7
 10
623.076412466
 20
-181.658918858
 30
0.000000000
 11
629.909385681
 21
-181.658918858
 31
0.000000000
  0
LINE
  8
PLAIN_
  6
L_DASH
 62
     7
 10
-138.561149597
 20
-58.224990845
 30
0.000000000
 11
-143.500038147
 21
-58.224990845
 31
0.000000000
  0
LINE
  8
PLAIN_
  6
L_DASH
 62
     7
 10
-138.561149597
 20
-46.775009155
 30
0.000000000
 11
-143.500038147
 21
-46.775009155
 31
0.000000000
  0
ARC
  8
PLAIN_
  6
L_DASH
 62
     7
 10
623.076412466
 20
-166.658918858
 30
0.000000000
 40
15.000000000
 50
234.000000000
 51
270.000000000
  0
ARC
  8
PLAIN_
  6
SOLID
 62
     7
 10
551.741597837
 20
121.693630299
 30
0.000000000
 40
10.000000000
 50
215.858449055
 51
36.000000000
  0
LINE
  8
PLAIN_
  6
SOLID
 62
     7
 10
519.314291906
 20
137.687950048
 30
0.000000000
 11
524.842342914
 21
141.704314202
 31
0.000000000
  0
ARC
  8
PLAIN_
  6
SOLID
 62
     7
 10
528.131070690
 20
125.552695132
 30
0.000000000
 40
15.000000000
 50
126.000000000
 51
162.000000000
  0
LINE
  8
PLAIN_
  6
L_DASH
 62
     7
 10
-138.561149597
 20
-49.637496948
 30
0.000000000
 11
-143.500038147
 21
-49.637496948
 31
0.000000000
  0
LINE
  8
PLAIN_
  6
L_DASH
 62
     7
 10
500.317572637
 20
-55.529638503
 30
0.000000000
 11
469.907290007
 21
-65.410538297
 31
0.000000000
  0
LINE
  8
PLAIN_
  6
CENTER
 62
     7
 10
756.038188332
 20
-37.391454139
 30
0.000000000
 11
837.332717565
 21
-63.805647883
 31
0.000000000
  0
LINE
  8
PLAIN_
  6
SOLID
 62
     7
 10
-0.000000954
 20
203.999877930
 30
0.000000000
 11
-1.000000954
 21
204.999938965
 31
0.000000000
  0
LINE
  8
PLAIN_
  6
L_DASH
 62
     7
 10
512.989347897
 20
127.492107581
 30
0.000000000
 11
487.740384910
 21
49.783789866
 31
0.000000000
  0
LINE
  8
PLAIN_
  6
L_DASH
 62
     7
 10
494.160738293
 20
-36.500902851
 30
0.000000000
 11
463.726929772
 21
-46.389446671
 31
0.000000000
  0
ARC
  8
PLAIN_
  6
SOLID
 62
     7
 10
-20.615978663
 20
-206.500000000
 30
0.000000000
 40
5.000000000
 50
45.000000000
 51
90.000000000
  0
LINE
  8
PLAIN_
  6
SOLID
 62
     7
 10
-138.561149597
 20
-43.500000000
 30
0.000000000
 11
-142.500038147
 21
-43.500000000
 31
0.000000000
  0
LINE
  8
PLAIN_
  6
SOLID
 62
     7
 10
-63.000003815
 20
-87.499968529
 30
0.000000000
 11
-63.000003815
 21
-105.184538841
 31
0.000000000
  0
LINE
  8
PLAIN_
  6
SOLID
 62
     7
 10
594.937038422
 20
-13.019610882
 30
0.000000000
 11
594.937038422
 21
-18.744739056
 31
0.000000000
  0
LINE
  8
PLAIN_
  6
SOLID
 62
     7
 10
589.978923798
 20
-10.157039165
 30
0.000000000
 11
594.937023181
 21
-13.019595686
 31
0.000000000
  0
ARC
  8
PLAIN_
  6
SOLID
 62
     7
 10
168.499984741
 20
-69.200003624
 30
0.000000000
 40
40.000000000
 50
89.999971996
 51
112.331521374
  0
LINE
  8
PLAIN_
  6
SOLID
 62
     7
 10
585.020824432
 20
-13.019610882
 30
0.000000000
 11
589.978908282
 21
-10.157039307
 31
0.000000000
  0
ARC
  8
PLAIN_
  6
SOLID
 62
     7
 10
639.909385681
 20
-52.158918858
 30
0.000000000
 40
12.500000000
 50
0.000000000
 51
180.000032330
  0
LINE
  8
PLAIN_
  6
SOLID
 62
     7
 10
-17.080444757
 20
-202.964466094
 30
0.000000000
 11
-15.044948044
 21
-204.999962807
 31
0.000000000
  0
LINE
  8
PLAIN_
  6
SOLID
 62
     7
 10
-63.000003815
 20
-87.499968529
 30
0.000000000
 11
-63.000003815
 21
-105.184538841
 31
0.000000000
  0
LINE
  8
PLAIN_
  6
SOLID
 62
     7
 10
-63.000003815
 20
0.000000000
 30
0.000000000
 11
-63.000003815
 21
-105.212853557
 31
0.000000000
  0
LINE
  8
PLAIN_
  6
SOLID
 62
     7
 10
-69.500007629
 20
-87.499968529
 30
0.000000000
 11
-70.500007629
 21
-86.499968529
 31
0.000000000
  0
LINE
  8
PLAIN_
  6
SOLID
 62
     7
 10
-63.000007629
 20
-87.499968529
 30
0.000000000
 11
-69.500007629
 21
-87.499968529
 31
0.000000000
  0
LINE
  8
PLAIN_
  6
SOLID
 62
     7
 10
585.020824432
 20
-18.744739056
 30
0.000000000
 11
585.020809174
 21
-13.019610882
 31
0.000000000
  0
ARC
  8
PLAIN_
  6
SOLID
 62
     7
 10
689.839854796
 20
-15.882305253
 30
0.000000000
 40
11.000000000
 50
260.849902213
 51
153.150150681
  0
LINE
  8
PLAIN_
  6
SOLID
 62
     7
 10
589.978939056
 20
-21.607310772
 30
0.000000000
 11
585.020824574
 21
-18.744739154
 31
0.000000000
  0
CIRCLE
  8
PLAIN_
  6
SOLID
 62
     7
 10
670.768100742
 20
42.814484519
 30
0.000000000
 40
11.000000000
  0
LINE
  8
PLAIN_
  6
SOLID
 62
     7
 10
594.937038422
 20
-18.744731426
 30
0.000000000
 11
589.978939023
 21
-21.607310902
 31
0.000000000
  0
LINE
  8
PLAIN_
  6
SOLID
 62
     7
 10
-63.000003815
 20
0.000000000
 30
0.000000000
 11
-63.000003815
 21
105.000000000
 31
0.000000000
  0
CIRCLE
  8
PLAIN_
  6
SOLID
 62
     7
 10
589.978923798
 20
-15.882174969
 30
0.000000000
 40
9.000000000
  0
CIRCLE
  8
PLAIN_
  6
SOLID
 62
     7
 10
609.050645579
 20
42.814469566
 30
0.000000000
 40
11.000000000
  0
ARC
  8
PLAIN_
  6
SOLID
 62
     7
 10
639.909385681
 20
0.341081142
 30
0.000000000
 40
65.000000000
 50
336.785309480
 51
203.214690520
  0
LINE
  8
PLAIN_
  6
L_DASH
 62
     7
 10
487.740336560
 20
49.783817309
 30
0.000000000
 11
461.615424926
 21
-30.620393137
 31
0.000000000
  0
LINE
  8
PLAIN_
  6
L_DASH
 62
     7
 10
461.615424926
 20
-39.890902969
 30
0.000000000
 11
463.726929772
 21
-46.389446671
 31
0.000000000
  0
LINE
  8
PLAIN_
  6
L_DASH
 62
     7
 10
649.909355164
 20
-149.683624133
 30
0.000000000
 11
649.909355164
 21
-181.658887546
 31
0.000000000
  0
LINE
  8
PLAIN_
  6
L_DASH
 62
     7
 10
629.909385681
 20
-149.658918858
 30
0.000000000
 11
629.909385681
 21
-181.658918858
 31
0.000000000
  0
LINE
  8
PLAIN_
  6
SOLID
 62
     7
 10
694.797931671
 20
-13.019736767
 30
0.000000000
 11
694.797931671
 21
-18.744864941
 31
0.000000000
  0
LINE
  8
PLAIN_
  6
SOLID
 62
     7
 10
689.839817047
 20
-10.157165051
 30
0.000000000
 11
694.797916431
 21
-13.019721571
 31
0.000000000
  0
ARC
  8
PLAIN_
  6
SOLID
 62
     7
 10
589.978908060
 20
-15.882292903
 30
0.000000000
 40
11.000000000
 50
26.849542837
 51
279.150009871
  0
LINE
  8
PLAIN_
  6
SOLID
 62
     7
 10
684.881717682
 20
-13.019736767
 30
0.000000000
 11
689.839801532
 21
-10.157165192
 31
0.000000000
  0
LINE
  8
PLAIN_
  6
SOLID
 62
     7
 10
684.881717682
 20
-18.744864941
 30
0.000000000
 11
684.881702423
 21
-13.019736767
 31
0.000000000
  0
LINE
  8
PLAIN_
  6
SOLID
 62
     7
 10
652.409385681
 20
-52.158920765
 30
0.000000000
 11
652.409385681
 21
-66.658919120
 31
0.000000000
  0
CIRCLE
  8
PLAIN_
  6
SOLID
 62
     7
 10
639.909385681
 20
0.341081142
 30
0.000000000
 40
22.000000000
  0
LINE
  8
PLAIN_
  6
SOLID
 62
     7
 10
622.339405060
 20
13.581010342
 30
0.000000000
 11
604.988801670
 21
-9.444018702
 31
0.000000000
  0
ARC
  8
PLAIN_
  6
L_DASH
 62
     7
 10
639.909385681
 20
-149.658918858
 30
0.000000000
 40
10.000000000
 50
359.858449055
 51
180.000000000
  0
LINE
  8
PLAIN_
  6
SOLID
 62
     7
 10
657.479366302
 20
-12.898848057
 30
0.000000000
 11
638.900993161
 21
-37.553182639
 31
0.000000000
  0
ARC
  8
PLAIN_
  6
L_DASH
 62
     7
 10
497.250908237
 20
-46.011468014
 30
0.000000000
 40
10.000000000
 50
287.858449055
 51
108.000000000
  0
LINE
  8
PLAIN_
  6
SOLID
 62
     7
 10
689.839832306
 20
-21.607436657
 30
0.000000000
 11
684.881717823
 21
-18.744865039
 31
0.000000000
  0
ARC
  8
PLAIN_
  6
SOLID
 62
     7
 10
630.914638519
 20
-31.535032749
 30
0.000000000
 40
10.000000000
 50
293.563581405
 51
322.999978935
  0
LINE
  8
PLAIN_
  6
SOLID
 62
     7
 10
736.350791931
 20
107.194241357
 30
0.000000000
 11
723.100791931
 21
99.544350290
 31
0.000000000
  0
LINE
  8
PLAIN_
  6
SOLID
 62
     7
 10
578.472155929
 20
-65.658919207
 30
0.000000000
 11
578.472155929
 21
-47.770623570
 31
0.000000000
  0
LINE
  8
PLAIN_
  6
SOLID
 62
     7
 10
699.346615608
 20
-67.658918858
 30
0.000000000
 11
639.909385681
 21
-67.658918858
 31
0.000000000
  0
ARC
  8
PLAIN_
  6
L_DASH
 62
     7
 10
475.881272670
 20
-35.255648053
 30
0.000000000
 40
15.000000000
 50
162.000000000
 51
198.000000000
  0
LINE
  8
PLAIN_
  6
CENTER
 62
     7
 10
605.409385681
 20
-38.772734165
 30
0.000000000
 11
605.409385681
 21
-74.408918858
 31
0.000000000
  0
LINE
  8
PLAIN_
  6
CENTER
 62
     7
 10
674.409385681
 20
-39.231634617
 30
0.000000000
 11
674.409385681
 21
-74.408918858
 31
0.000000000
  0
LINE
  8
PLAIN_
  6
SOLID
 62
     7
 10
580.472155754
 20
-67.658918858
 30
0.000000000
 11
578.472155929
 21
-65.658919207
 31
0.000000000
  0
ARC
  8
PLAIN_
  6
SOLID
 62
     7
 10
570.172155977
 20
-22.860287407
 30
0.000000000
 40
10.000000000
 50
360.000000000
 51
19.407516273
  0
LINE
  8
PLAIN_
  6
SOLID
 62
     7
 10
694.797931671
 20
-18.744857311
 30
0.000000000
 11
689.839832273
 21
-21.607436787
 31
0.000000000
  0
ARC
  8
PLAIN_
  6
SOLID
 62
     7
 10
598.472155929
 20
-47.770623570
 30
0.000000000
 40
20.000000000
 50
104.914077237
 51
180.000000000
  0
ARC
  8
PLAIN_
  6
SOLID
 62
     7
 10
612.975087166
 20
-15.462172031
 30
0.000000000
 40
10.000000000
 50
142.999745115
 51
181.046507924
  0
ARC
  8
PLAIN_
  6
SOLID
 62
     7
 10
592.046180725
 20
-28.716810703
 30
0.000000000
 40
2.000000000
 50
17.999852058
 51
99.150012606
  0
ARC
  8
PLAIN_
  6
SOLID
 62
     7
 10
589.978923798
 20
-15.882242680
 30
0.000000000
 40
13.000000000
 50
284.914077237
 51
1.046512933
  0
ARC
  8
PLAIN_
  6
SOLID
 62
     7
 10
601.577460289
 20
-10.010809422
 30
0.000000000
 40
2.000000000
 50
206.849514608
 51
288.000064477
  0
LINE
  8
PLAIN_
  6
SOLID
 62
     7
 10
628.071282076
 20
21.738731828
 30
0.000000000
 11
618.912685899
 21
34.344447293
 31
0.000000000
  0
LINE
  8
PLAIN_
  6
SOLID
 62
     7
 10
623.217177018
 20
18.212023216
 30
0.000000000
 11
614.058559611
 21
30.817765694
 31
0.000000000
  0
LINE
  8
PLAIN_
  6
SOLID
 62
     7
 10
651.747481887
 20
21.738732758
 30
0.000000000
 11
660.906082513
 21
34.344473283
 31
0.000000000
  0
LINE
  8
PLAIN_
  6
SOLID
 62
     7
 10
656.601583582
 20
18.212019517
 30
0.000000000
 11
665.760199832
 21
30.817779339
 31
0.000000000
  0
ARC
  8
PLAIN_
  6
SOLID
 62
     7
 10
639.909385681
 20
0.341081142
 30
0.000000000
 40
205.000000000
 50
342.000000000
 51
18.000000000
  0
LINE
  8
PLAIN_
  6
SOLID
 62
     7
 10
-0.000000954
 20
-203.999969482
 30
0.000000000
 11
-1.000000954
 21
-204.999969482
 31
0.000000000
  0
ARC
  8
PLAIN_
  6
SOLID
 62
     7
 10
687.772567749
 20
-28.716879368
 30
0.000000000
 40
2.000000000
 50
80.849791140
 51
162.000149763
  0
LINE
  8
PLAIN_
  6
SOLID
 62
     7
 10
-63.000007629
 20
87.500000954
 30
0.000000000
 11
-69.500007629
 21
87.500000954
 31
0.000000000
  0
LINE
  8
PLAIN_
  6
SOLID
 62
     7
 10
655.465736389
 20
15.897429943
 30
0.000000000
 11
674.596758731
 21
-3.233592398
 31
0.000000000
  0
LINE
  8
PLAIN_
  6
SOLID
 62
     7
 10
-15.044971886
 20
204.999938965
 30
0.000000000
 11
-1.000000954
 21
204.999938965
 31
0.000000000
  0
LINE
  8
PLAIN_
  6
SOLID
 62
     7
 10
-69.500007629
 20
87.500000954
 30
0.000000000
 11
-70.500007629
 21
86.500000954
 31
0.000000000
  0
ARC
  8
PLAIN_
  6
SOLID
 62
     7
 10
639.909385681
 20
0.341081142
 30
0.000000000
 40
205.000000000
 50
18.000000000
 51
54.000000000
  0
ARC
  8
PLAIN_
  6
SOLID
 62
     7
 10
611.631526232
 20
29.054419041
 30
0.000000000
 40
3.000000000
 50
35.999176370
 51
100.623168297
  0
LINE
  8
PLAIN_
  6
SOLID
 62
     7
 10
-70.500007629
 20
86.500000954
 30
0.000000000
 11
-70.500007629
 21
-86.499968529
 31
0.000000000
  0
ARC
  8
PLAIN_
  6
SOLID
 62
     7
 10
621.339737892
 20
36.107802868
 30
0.000000000
 40
3.000000000
 50
151.376900415
 51
216.000024907
  0
ARC
  8
PLAIN_
  6
SOLID
 62
     7
 10
639.909385681
 20
0.341081142
 30
0.000000000
 40
205.000000000
 50
270.000000000
 51
306.000000000
  0
ARC
  8
PLAIN_
  6
SOLID
 62
     7
 10
630.498332977
 20
23.502088070
 30
0.000000000
 40
3.000000000
 50
216.000031738
 51
292.113433207
  0
ARC
  8
PLAIN_
  6
SOLID
 62
     7
 10
620.790128708
 20
16.448665142
 30
0.000000000
 40
3.000000000
 50
319.886563561
 51
36.000087973
  0
ARC
  8
PLAIN_
  6
SOLID
 62
     7
 10
658.479030609
 20
36.107831478
 30
0.000000000
 40
3.000000000
 50
324.000004007
 51
28.623114839
  0
ARC
  8
PLAIN_
  6
SOLID
 62
     7
 10
639.909385681
 20
0.341081142
 30
0.000000000
 40
205.000000000
 50
306.000000000
 51
342.000000000
  0
ARC
  8
PLAIN_
  6
SOLID
 62
     7
 10
668.187252045
 20
29.054425716
 30
0.000000000
 40
3.000000000
 50
79.377038430
 51
144.000012659
  0
ARC
  8
PLAIN_
  6
SOLID
 62
     7
 10
659.028633118
 20
16.448667049
 30
0.000000000
 40
3.000000000
 50
143.999978508
 51
220.113455109
  0
ARC
  8
PLAIN_
  6
SOLID
 62
     7
 10
649.320426941
 20
23.502089977
 30
0.000000000
 40
3.000000000
 50
247.886541067
 51
324.000051818
  0
ARC
  8
PLAIN_
  6
SOLID
 62
     7
 10
639.909385681
 20
0.341081142
 30
0.000000000
 40
205.000000000
 50
198.000000000
 51
234.000000000
  0
ARC
  8
PLAIN_
  6
SOLID
 62
     7
 10
667.525688171
 20
-10.304659367
 30
0.000000000
 40
10.000000000
 50
345.965933359
 51
45.000064318
  0
ARC
  8
PLAIN_
  6
SOLID
 62
     7
 10
570.172155977
 20
-37.815222890
 30
0.000000000
 40
10.000000000
 50
340.619099598
 51
360.000000000
  0
LINE
  8
PLAIN_
  6
SOLID
 62
     7
 10
-31.000003815
 20
-201.499999046
 30
0.000000000
 11
-20.615978663
 21
-201.499999046
 31
0.000000000
  0
ARC
  8
PLAIN_
  6
SOLID
 62
     7
 10
689.839851379
 20
-15.882303715
 30
0.000000000
 40
13.000000000
 50
165.965917251
 51
255.085889089
  0
LINE
  8
PLAIN_
  6
SOLID
 62
     7
 10
-15.044948044
 20
-204.999962807
 30
0.000000000
 11
-0.999939919
 21
-204.999962807
 31
0.000000000
  0
ARC
  8
PLAIN_
  6
SOLID
 62
     7
 10
639.909385681
 20
0.341081142
 30
0.000000000
 40
205.000000000
 50
234.000000000
 51
270.000000000
  0
ARC
  8
PLAIN_
  6
SOLID
 62
     7
 10
678.241348267
 20
-10.010794163
 30
0.000000000
 40
2.000000000
 50
251.999831249
 51
333.150107910
  0
LINE
  8
PLAIN_
  6
SOLID
 62
     7
 10
-55.695890800
 20
196.255181356
 30
0.000000000
 11
-20.229052383
 21
201.239720432
 31
0.000000000
  0
LINE
  8
PLAIN_
  6
SOLID
 62
     7
 10
639.909385681
 20
-67.658918858
 30
0.000000000
 11
580.472155754
 21
-67.658918858
 31
0.000000000
  0
LINE
  8
PLAIN_
  6
SOLID
 62
     7
 10
701.346615433
 20
-65.658919207
 30
0.000000000
 11
701.346615433
 21
-47.770623570
 31
0.000000000
  0
ARC
  8
PLAIN_
  6
L_DASH
 62
     7
 10
639.909385681
 20
0.341081142
 30
0.000000000
 40
205.000000000
 50
126.000000000
 51
135.874103260
  0
ARC
  8
PLAIN_
  6
SOLID
 62
     7
 10
639.909385681
 20
0.341081142
 30
0.000000000
 40
50.000000000
 50
74.127651920
 51
105.872458729
  0
ARC
  8
PLAIN_
  6
SOLID
 62
     7
 10
639.909385681
 20
0.341081142
 30
0.000000000
 40
50.000000000
 50
2.127608935
 51
18.000026000
  0
LINE
  8
PLAIN_
  6
CENTER
 62
     7
 10
-159.638648987
 20
0.000000000
 30
0.000000000
 11
241.905418396
 21
0.000000000
 31
0.000000000
  0
ARC
  8
PLAIN_
  6
SOLID
 62
     7
 10
689.726219177
 20
33.781816006
 30
0.000000000
 40
10.000000000
 50
154.524371113
 51
213.872431226
  0
ARC
  8
PLAIN_
  6
SOLID
 62
     7
 10
639.909385681
 20
0.341081142
 30
0.000000000
 40
205.000000000
 50
162.000000000
 51
198.000000000
  0
ARC
  8
PLAIN_
  6
SOLID
 62
     7
 10
699.868019104
 20
2.568589687
 30
0.000000000
 40
10.000000000
 50
182.127596029
 51
241.475656142
  0
ARC
  8
PLAIN_
  6
SOLID
 62
     7
 10
656.319114685
 20
58.053477764
 30
0.000000000
 40
10.000000000
 50
254.127482987
 51
313.475645553
  0
CIRCLE
  8
PLAIN_
  6
SOLID
 62
     7
 10
689.839817047
 20
-15.882300854
 30
0.000000000
 40
9.000000000
  0
LINE
  8
PLAIN_
  6
SOLID
 62
     7
 10
227.499983788
 20
29.000000715
 30
0.000000000
 11
229.499983788
 21
29.000000715
 31
0.000000000
  0
LINE
  8
PLAIN_
  6
SOLID
 62
     7
 10
639.909384902
 20
61.341079844
 30
0.000000000
 11
644.301685129
 21
54.020579466
 31
0.000000000
  0
LINE
  8
PLAIN_
  6
SOLID
 62
     7
 10
644.301685283
 20
54.020579210
 30
0.000000000
 11
635.517084521
 21
54.020579210
 31
0.000000000
  0
LINE
  8
PLAIN_
  6
SOLID
 62
     7
 10
226.055975067
 20
-9.999000841
 30
0.000000000
 11
224.944975044
 21
-8.888000818
 31
0.000000000
  0
LINE
  8
PLAIN_
  6
SOLID
 62
     7
 10
653.409385506
 20
-67.658918858
 30
0.000000000
 11
652.409385681
 21
-66.658919120
 31
0.000000000
  0
LINE
  8
PLAIN_
  6
SOLID
 62
     7
 10
635.517084521
 20
54.020579210
 30
0.000000000
 11
639.909384748
 21
61.341079588
 31
0.000000000
  0
LINE
  8
PLAIN_
  6
SOLID
 62
     7
 10
226.055975067
 20
10.554500288
 30
0.000000000
 11
228.833475220
 21
10.554500288
 31
0.000000000
  0
LINE
  8
PLAIN_
  6
SOLID
 62
     7
 10
226.055975067
 20
-10.554500871
 30
0.000000000
 11
229.388983727
 21
-10.554500871
 31
0.000000000
  0
ARC
  8
PLAIN_
  6
SOLID
 62
     7
 10
228.999976158
 20
-11.999998808
 30
0.000000000
 40
1.500000000
 50
0.000000000
 51
89.999982014
  0
LINE
  8
PLAIN_
  6
SOLID
 62
     7
 10
230.499981471
 20
-0.000000715
 30
0.000000000
 11
230.499981471
 21
-28.000002623
 31
0.000000000
  0
LINE
  8
PLAIN_
  6
SOLID
 62
     7
 10
178.368483543
 20
-0.000000954
 30
0.000000000
 11
183.499972926
 21
8.887999216
 31
0.000000000
  0
ARC
  8
PLAIN_
  6
SOLID
 62
     7
 10
623.499622345
 20
58.053466320
 30
0.000000000
 40
10.000000000
 50
226.524304815
 51
285.872173683
  0
LINE
  8
PLAIN_
  6
SOLID
 62
     7
 10
169.499983788
 20
-29.200001478
 30
0.000000000
 11
227.299971581
 21
-29.200001478
 31
0.000000000
  0
LINE
  8
PLAIN_
  6
SOLID
 62
     7
 10
227.499976158
 20
-27.999997377
 30
0.000000000
 11
227.499977682
 21
-16.816862345
 31
0.000000000
  0
ARC
  8
PLAIN_
  6
SOLID
 62
     7
 10
588.807125682
 20
37.228582153
 30
0.000000000
 40
10.000000000
 50
346.067762284
 51
15.425964394
  0
LINE
  8
PLAIN_
  6
SOLID
 62
     7
 10
598.512939453
 20
34.820840359
 30
0.000000000
 11
599.487953217
 21
34.504041194
 31
0.000000000
  0
LINE
  8
PLAIN_
  6
SOLID
 62
     7
 10
599.487953186
 20
34.504041195
 30
0.000000000
 11
587.127274094
 21
-3.538219679
 31
0.000000000
  0
LINE
  8
PLAIN_
  6
SOLID
 62
     7
 10
626.409385856
 20
-67.658918858
 30
0.000000000
 11
627.409385681
 21
-66.658919120
 31
0.000000000
  0
LINE
  8
PLAIN_
  6
CENTER
 62
     7
 10
169.499983015
 20
-22.329939604
 30
0.000000000
 11
169.499983015
 21
-40.488924742
 31
0.000000000
  0
LINE
  8
PLAIN_
  6
CENTER
 62
     7
 10
169.499983015
 20
22.329939604
 30
0.000000000
 11
169.499985489
 21
40.488924742
 31
0.000000000
  0
LINE
  8
PLAIN_
  6
SOLID
 62
     7
 10
586.152267456
 20
-3.221422672
 30
0.000000000
 11
587.127273569
 21
-3.538221850
 31
0.000000000
  0
ARC
  8
PLAIN_
  6
SOLID
 62
     7
 10
576.884832782
 20
0.535523473
 30
0.000000000
 40
10.000000000
 50
308.574156005
 51
341.999988482
  0
ARC
  8
PLAIN_
  6
SOLID
 62
     7
 10
168.499984741
 20
69.200005531
 30
0.000000000
 40
40.000000000
 50
247.668478626
 51
270.000028004
  0
LINE
  8
PLAIN_
  6
L_DASH
 62
     7
 10
588.784383774
 20
-44.658915043
 30
0.000000000
 11
588.784383774
 21
-67.658918858
 31
0.000000000
  0
LINE
  8
PLAIN_
  6
L_DASH
 62
     7
 10
622.034387589
 20
-44.658915997
 30
0.000000000
 11
622.034387589
 21
-67.658915997
 31
0.000000000
  0
LINE
  8
PLAIN_
  6
SOLID
 62
     7
 10
675.726186752
 20
45.677071095
 30
0.000000000
 11
675.726186752
 21
39.951942921
 31
0.000000000
  0
LINE
  8
PLAIN_
  6
L_DASH
 62
     7
 10
588.784385681
 20
-67.658918858
 30
0.000000000
 11
590.264379516
 21
-66.178925023
 31
0.000000000
  0
LINE
  8
PLAIN_
  6
SOLID
 62
     7
 10
670.768072128
 20
48.539642811
 30
0.000000000
 11
675.726171512
 21
45.677086290
 31
0.000000000
  0
LINE
  8
PLAIN_
  6
SOLID
 62
     7
 10
665.809972763
 20
45.677071095
 30
0.000000000
 11
670.768056613
 21
48.539642670
 31
0.000000000
  0
LINE
  8
PLAIN_
  6
L_DASH
 62
     7
 10
620.554387093
 20
-46.138911724
 30
0.000000000
 11
620.554387093
 21
-66.178920269
 31
0.000000000
  0
LINE
  8
PLAIN_
  6
SOLID
 62
     7
 10
152.499938965
 20
32.200001717
 30
0.000000000
 11
224.299972534
 21
32.200001717
 31
0.000000000
  0
LINE
  8
PLAIN_
  6
SOLID
 62
     7
 10
152.499938965
 20
-32.199999809
 30
0.000000000
 11
224.299972534
 21
-32.199999809
 31
0.000000000
  0
LINE
  8
PLAIN_
  6
L_DASH
 62
     7
 10
590.264385223
 20
-46.138913631
 30
0.000000000
 11
590.264385223
 21
-66.178925991
 31
0.000000000
  0
LINE
  8
PLAIN_
  6
SOLID
 62
     7
 10
229.499983788
 20
15.908476412
 30
0.000000000
 11
229.499983788
 21
28.999999583
 31
0.000000000
  0
LINE
  8
PLAIN_
  6
SOLID
 62
     7
 10
227.499982047
 20
15.227991819
 30
0.000000000
 11
227.499983788
 21
28.000002623
 31
0.000000000
  0
POLYLINE
  8
PLAIN_
  6
SOLID
 62
     7
 66
     1
 10
0.000000000
 20
0.000000000
 30
0.000000000
  0
VERTEX
  8
PLAIN_
 10
230.499988398
 20
16.283275185
 30
0.000000000
  0
VERTEX
  8
PLAIN_
 10
228.841995191
 20
15.668461965
 30
0.000000000
  0
VERTEX
  8
PLAIN_
 10
228.015764355
 20
15.386911242
 30
0.000000000
  0
VERTEX
  8
PLAIN_
 10
227.189592058
 20
15.140306785
 30
0.000000000
  0
VERTEX
  8
PLAIN_
 10
226.362139321
 20
14.941930353
 30
0.000000000
  0
VERTEX
  8
PLAIN_
 10
225.532067163
 20
14.805063704
 30
0.000000000
  0
VERTEX
  8
PLAIN_
 10
225.115630370
 20
14.763847096
 30
0.000000000
  0
VERTEX
  8
PLAIN_
 10
224.698036604
 20
14.742988594
 30
0.000000000
  0
VERTEX
  8
PLAIN_
 10
224.279118493
 20
14.744148416
 30
0.000000000
  0
VERTEX
  8
PLAIN_
 10
223.858708665
 20
14.768986781
 30
0.000000000
  0
VERTEX
  8
PLAIN_
 10
223.192922507
 20
14.857758961
 30
0.000000000
  0
VERTEX
  8
PLAIN_
 10
222.522779768
 20
15.001365317
 30
0.000000000
  0
VERTEX
  8
PLAIN_
 10
221.848042771
 20
15.191731252
 30
0.000000000
  0
VERTEX
  8
PLAIN_
 10
221.168473838
 20
15.420782164
 30
0.000000000
  0
VERTEX
  8
PLAIN_
 10
219.793889455
 20
15.962640526
 30
0.000000000
  0
VERTEX
  8
PLAIN_
 10
218.397125197
 20
16.562343607
 30
0.000000000
  0
VERTEX
  8
PLAIN_
 10
217.348194808
 20
16.973480154
 30
0.000000000
  0
VERTEX
  8
PLAIN_
 10
216.312946197
 20
17.301972019
 30
0.000000000
  0
VERTEX
  8
PLAIN_
 10
215.289595188
 20
17.556402183
 30
0.000000000
  0
VERTEX
  8
PLAIN_
 10
214.276357608
 20
17.745353623
 30
0.000000000
  0
VERTEX
  8
PLAIN_
 10
213.271449284
 20
17.877409317
 30
0.000000000
  0
VERTEX
  8
PLAIN_
 10
212.273086042
 20
17.961152245
 30
0.000000000
  0
VERTEX
  8
PLAIN_
 10
211.279483707
 20
18.005165386
 30
0.000000000
  0
VERTEX
  8
PLAIN_
 10
210.288858105
 20
18.018031717
 30
0.000000000
  0
VERTEX
  8
PLAIN_
 10
208.309400407
 20
17.984655868
 30
0.000000000
  0
VERTEX
  8
PLAIN_
 10
205.317935013
 20
17.915565493
 30
0.000000000
  0
VERTEX
  8
PLAIN_
 10
204.307702161
 20
17.921793523
 30
0.000000000
  0
VERTEX
  8
PLAIN_
 10
203.287956824
 20
17.956955595
 30
0.000000000
  0
VERTEX
  8
PLAIN_
 10
202.256914830
 20
18.029634688
 30
0.000000000
  0
VERTEX
  8
PLAIN_
 10
202.089379622
 20
18.029515069
 30
0.000000000
  0
VERTEX
  8
PLAIN_
 10
201.931657536
 20
17.999827753
 30
0.000000000
  0
VERTEX
  8
PLAIN_
 10
201.782647800
 20
17.943709672
 30
0.000000000
  0
VERTEX
  8
PLAIN_
 10
201.641249646
 20
17.864297757
 30
0.000000000
  0
VERTEX
  8
PLAIN_
 10
201.376884992
 20
17.648140155
 30
0.000000000
  0
VERTEX
  8
PLAIN_
 10
201.129757407
 20
17.376450399
 30
0.000000000
  0
VERTEX
  8
PLAIN_
 10
200.651988767
 20
16.766856243
 30
0.000000000
  0
VERTEX
  8
PLAIN_
 10
200.403735376
 20
16.479142751
 30
0.000000000
  0
VERTEX
  8
PLAIN_
 10
200.137494380
 20
16.236278922
 30
0.000000000
  0
VERTEX
  8
PLAIN_
 10
199.566679938
 20
15.835225965
 30
0.000000000
  0
VERTEX
  8
PLAIN_
 10
198.970149925
 20
15.480259373
 30
0.000000000
  0
VERTEX
  8
PLAIN_
 10
198.352057000
 20
15.170693723
 30
0.000000000
  0
VERTEX
  8
PLAIN_
 10
197.716553823
 20
14.905843590
 30
0.000000000
  0
VERTEX
  8
PLAIN_
 10
197.067793052
 20
14.685023551
 30
0.000000000
  0
VERTEX
  8
PLAIN_
 10
196.409927347
 20
14.507548181
 30
0.000000000
  0
VERTEX
  8
PLAIN_
 10
195.747109366
 20
14.372732057
 30
0.000000000
  0
VERTEX
  8
PLAIN_
 10
195.083491768
 20
14.279889754
 30
0.000000000
  0
VERTEX
  8
PLAIN_
 10
194.422489130
 20
14.227314277
 30
0.000000000
  0
VERTEX
  8
PLAIN_
 10
193.764566500
 20
14.209212463
 30
0.000000000
  0
VERTEX
  8
PLAIN_
 10
193.109451483
 20
14.218769553
 30
0.000000000
  0
VERTEX
  8
PLAIN_
 10
192.456871686
 20
14.249170792
 30
0.000000000
  0
VERTEX
  8
PLAIN_
 10
189.866456813
 20
14.442922097
 30
0.000000000
  0
VERTEX
  8
PLAIN_
 10
188.319448403
 20
14.509781037
 30
0.000000000
  0
VERTEX
  8
PLAIN_
 10
186.758119942
 20
14.552021684
 30
0.000000000
  0
VERTEX
  8
PLAIN_
 10
185.161394579
 20
14.621228709
 30
0.000000000
  0
VERTEX
  8
PLAIN_
 10
184.343171543
 20
14.682064822
 30
0.000000000
  0
VERTEX
  8
PLAIN_
 10
183.508195462
 20
14.768986781
 30
0.000000000
  0
VERTEX
  8
PLAIN_
 10
178.872558552
 20
15.469932724
 30
0.000000000
  0
VERTEX
  8
PLAIN_
 10
177.727790303
 20
15.574349787
 30
0.000000000
  0
VERTEX
  8
PLAIN_
 10
177.166722143
 20
15.596189093
 30
0.000000000
  0
VERTEX
  8
PLAIN_
 10
176.615427007
 20
15.592995262
 30
0.000000000
  0
VERTEX
  8
PLAIN_
 10
176.075576679
 20
15.561178057
 30
0.000000000
  0
VERTEX
  8
PLAIN_
 10
175.548842944
 20
15.497147239
 30
0.000000000
  0
VERTEX
  8
PLAIN_
 10
175.036897588
 20
15.397312569
 30
0.000000000
  0
VERTEX
  8
PLAIN_
 10
174.541412396
 20
15.258083808
 30
0.000000000
  0
VERTEX
  8
PLAIN_
 10
174.122608153
 20
15.101724162
 30
0.000000000
  0
VERTEX
  8
PLAIN_
 10
173.718377525
 20
14.913669811
 30
0.000000000
  0
VERTEX
  8
PLAIN_
 10
173.329411814
 20
14.695135935
 30
0.000000000
  0
VERTEX
  8
PLAIN_
 10
172.956402320
 20
14.447337714
 30
0.000000000
  0
VERTEX
  8
PLAIN_
 10
172.600040344
 20
14.171490330
 30
0.000000000
  0
VERTEX
  8
PLAIN_
 10
172.261017186
 20
13.868808962
 30
0.000000000
  0
VERTEX
  8
PLAIN_
 10
171.940024148
 20
13.540508790
 30
0.000000000
  0
VERTEX
  8
PLAIN_
 10
171.637752531
 20
13.187804997
 30
0.000000000
  0
VERTEX
  8
PLAIN_
 10
171.354893634
 20
12.811912760
 30
0.000000000
  0
VERTEX
  8
PLAIN_
 10
171.092138760
 20
12.414047262
 30
0.000000000
  0
VERTEX
  8
PLAIN_
 10
170.850179207
 20
11.995423683
 30
0.000000000
  0
VERTEX
  8
PLAIN_
 10
170.629706278
 20
11.557257202
 30
0.000000000
  0
VERTEX
  8
PLAIN_
 10
170.431411273
 20
11.100763001
 30
0.000000000
  0
VERTEX
  8
PLAIN_
 10
170.255985493
 20
10.627156260
 30
0.000000000
  0
VERTEX
  8
PLAIN_
 10
170.104120239
 20
10.137652159
 30
0.000000000
  0
VERTEX
  8
PLAIN_
 10
169.976506811
 20
9.633465879
 30
0.000000000
  0
VERTEX
  8
PLAIN_
 10
169.810577507
 20
8.740576953
 30
0.000000000
  0
VERTEX
  8
PLAIN_
 10
169.452794589
 20
6.010990069
 30
0.000000000
  0
VERTEX
  8
PLAIN_
 10
169.280266035
 20
5.146333954
 30
0.000000000
  0
VERTEX
  8
PLAIN_
 10
169.167149902
 20
4.732974855
 30
0.000000000
  0
VERTEX
  8
PLAIN_
 10
169.031135736
 20
4.335370704
 30
0.000000000
  0
VERTEX
  8
PLAIN_
 10
168.868475940
 20
3.955853235
 30
0.000000000
  0
VERTEX
  8
PLAIN_
 10
168.675422918
 20
3.596754182
 30
0.000000000
  0
VERTEX
  8
PLAIN_
 10
168.448229072
 20
3.260405277
 30
0.000000000
  0
VERTEX
  8
PLAIN_
 10
168.183146807
 20
2.949138254
 30
0.000000000
  0
VERTEX
  8
PLAIN_
 10
167.915516234
 20
2.694973988
 30
0.000000000
  0
VERTEX
  8
PLAIN_
 10
167.624401778
 20
2.457049307
 30
0.000000000
  0
VERTEX
  8
PLAIN_
 10
166.409441022
 20
1.561936888
 30
0.000000000
  0
VERTEX
  8
PLAIN_
 10
166.139159075
 20
1.325852976
 30
0.000000000
  0
VERTEX
  8
PLAIN_
 10
165.900694014
 20
1.074265787
 30
0.000000000
  0
VERTEX
  8
PLAIN_
 10
165.747072875
 20
0.872067245
 30
0.000000000
  0
VERTEX
  8
PLAIN_
 10
165.615940402
 20
0.658713700
 30
0.000000000
  0
VERTEX
  8
PLAIN_
 10
165.506564743
 20
0.434817339
 30
0.000000000
  0
VERTEX
  8
PLAIN_
 10
165.418214047
 20
0.200990351
 30
0.000000000
  0
VERTEX
  8
PLAIN_
 10
165.350156463
 20
-0.042155076
 30
0.000000000
  0
VERTEX
  8
PLAIN_
 10
165.301660137
 20
-0.294006754
 30
0.000000000
  0
VERTEX
  8
PLAIN_
 10
165.260423857
 20
-0.821380108
 30
0.000000000
  0
VERTEX
  8
PLAIN_
 10
165.288650393
 20
-1.376232206
 30
0.000000000
  0
VERTEX
  8
PLAIN_
 10
165.380484933
 20
-1.953665541
 30
0.000000000
  0
VERTEX
  8
PLAIN_
 10
165.530072662
 20
-2.548782609
 30
0.000000000
  0
VERTEX
  8
PLAIN_
 10
165.731558766
 20
-3.156685902
 30
0.000000000
  0
VERTEX
  8
PLAIN_
 10
165.979088433
 20
-3.772477916
 30
0.000000000
  0
VERTEX
  8
PLAIN_
 10
166.266806848
 20
-4.391261145
 30
0.000000000
  0
VERTEX
  8
PLAIN_
 10
166.588859198
 20
-5.008138082
 30
0.000000000
  0
VERTEX
  8
PLAIN_
 10
166.939390669
 20
-5.618211221
 30
0.000000000
  0
VERTEX
  8
PLAIN_
 10
167.312546448
 20
-6.216583058
 30
0.000000000
  0
VERTEX
  8
PLAIN_
 10
167.702471720
 20
-6.798356085
 30
0.000000000
  0
VERTEX
  8
PLAIN_
 10
168.509211492
 20
-7.892515690
 30
0.000000000
  0
VERTEX
  8
PLAIN_
 10
170.789737562
 20
-10.629332305
 30
0.000000000
  0
VERTEX
  8
PLAIN_
 10
171.254123808
 20
-11.268121098
 30
0.000000000
  0
VERTEX
  8
PLAIN_
 10
171.649205638
 20
-11.923570014
 30
0.000000000
  0
VERTEX
  8
PLAIN_
 10
171.816537661
 20
-12.262983622
 30
0.000000000
  0
VERTEX
  8
PLAIN_
 10
171.961479897
 20
-12.613092186
 30
0.000000000
  0
VERTEX
  8
PLAIN_
 10
172.082344452
 20
-12.976072347
 30
0.000000000
  0
VERTEX
  8
PLAIN_
 10
172.177443432
 20
-13.354100747
 30
0.000000000
  0
VERTEX
  8
PLAIN_
 10
172.270490494
 20
-13.951769714
 30
0.000000000
  0
VERTEX
  8
PLAIN_
 10
172.310478532
 20
-14.581437999
 30
0.000000000
  0
VERTEX
  8
PLAIN_
 10
172.306118851
 20
-15.236348976
 30
0.000000000
  0
VERTEX
  8
PLAIN_
 10
172.266122752
 20
-15.909746020
 30
0.000000000
  0
VERTEX
  8
PLAIN_
 10
172.114066518
 20
-17.284971808
 30
0.000000000
  0
VERTEX
  8
PLAIN_
 10
171.924000255
 20
-18.653062359
 30
0.000000000
  0
VERTEX
  8
PLAIN_
 10
171.765614390
 20
-19.959964669
 30
0.000000000
  0
VERTEX
  8
PLAIN_
 10
171.720079864
 20
-20.573578670
 30
0.000000000
  0
VERTEX
  8
PLAIN_
 10
171.708599347
 20
-21.151625735
 30
0.000000000
  0
VERTEX
  8
PLAIN_
 10
171.739884142
 20
-21.687349238
 30
0.000000000
  0
VERTEX
  8
PLAIN_
 10
171.822645552
 20
-22.173992554
 30
0.000000000
  0
VERTEX
  8
PLAIN_
 10
171.965594881
 20
-22.604799058
 30
0.000000000
  0
VERTEX
  8
PLAIN_
 10
172.062362298
 20
-22.797152059
 30
0.000000000
  0
VERTEX
  8
PLAIN_
 10
172.177443432
 20
-22.973012123
 30
0.000000000
  0
VERTEX
  8
PLAIN_
 10
172.327689762
 20
-23.148337598
 30
0.000000000
  0
VERTEX
  8
PLAIN_
 10
172.500833193
 20
-23.302877470
 30
0.000000000
  0
VERTEX
  8
PLAIN_
 10
172.695816936
 20
-23.437250472
 30
0.000000000
  0
VERTEX
  8
PLAIN_
 10
172.911584201
 20
-23.552075340
 30
0.000000000
  0
VERTEX
  8
PLAIN_
 10
173.147078201
 20
-23.647970806
 30
0.000000000
  0
VERTEX
  8
PLAIN_
 10
173.401242146
 20
-23.725555605
 30
0.000000000
  0
VERTEX
  8
PLAIN_
 10
173.961352715
 20
-23.828268138
 30
0.000000000
  0
VERTEX
  8
PLAIN_
 10
174.583461595
 20
-23.865162809
 30
0.000000000
  0
VERTEX
  8
PLAIN_
 10
175.259114475
 20
-23.841189492
 30
0.000000000
  0
VERTEX
  8
PLAIN_
 10
175.979857043
 20
-23.761298056
 30
0.000000000
  0
VERTEX
  8
PLAIN_
 10
176.737234986
 20
-23.630438375
 30
0.000000000
  0
VERTEX
  8
PLAIN_
 10
177.522793993
 20
-23.453560321
 30
0.000000000
  0
VERTEX
  8
PLAIN_
 10
178.328079752
 20
-23.235613764
 30
0.000000000
  0
VERTEX
  8
PLAIN_
 10
179.144637950
 20
-22.981548577
 30
0.000000000
  0
VERTEX
  8
PLAIN_
 10
179.964014275
 20
-22.696314631
 30
0.000000000
  0
VERTEX
  8
PLAIN_
 10
180.777754415
 20
-22.384861799
 30
0.000000000
  0
VERTEX
  8
PLAIN_
 10
181.577404058
 20
-22.052139951
 30
0.000000000
  0
VERTEX
  8
PLAIN_
 10
182.354508893
 20
-21.703098961
 30
0.000000000
  0
VERTEX
  8
PLAIN_
 10
183.100614606
 20
-21.342688700
 30
0.000000000
  0
VERTEX
  8
PLAIN_
 10
184.217658908
 20
-20.753856052
 30
0.000000000
  0
VERTEX
  8
PLAIN_
 10
185.252204822
 20
-20.163566242
 30
0.000000000
  0
VERTEX
  8
PLAIN_
 10
187.147810100
 20
-19.038521092
 30
0.000000000
  0
VERTEX
  8
PLAIN_
 10
188.045873766
 20
-18.533718730
 30
0.000000000
  0
VERTEX
  8
PLAIN_
 10
188.935447653
 20
-18.087365162
 30
0.000000000
  0
VERTEX
  8
PLAIN_
 10
189.382832851
 20
-17.890786829
 30
0.000000000
  0
VERTEX
  8
PLAIN_
 10
189.835033912
 20
-17.714436877
 30
0.000000000
  0
VERTEX
  8
PLAIN_
 10
190.294363604
 20
-17.560187369
 30
0.000000000
  0
VERTEX
  8
PLAIN_
 10
190.763134696
 20
-17.429910365
 30
0.000000000
  0
VERTEX
  8
PLAIN_
 10
191.303877900
 20
-17.313583992
 30
0.000000000
  0
VERTEX
  8
PLAIN_
 10
191.858054475
 20
-17.228130747
 30
0.000000000
  0
VERTEX
  8
PLAIN_
 10
192.424221529
 20
-17.171714214
 30
0.000000000
  0
VERTEX
  8
PLAIN_
 10
193.000936168
 20
-17.142497981
 30
0.000000000
  0
VERTEX
  8
PLAIN_
 10
193.586755501
 20
-17.138645634
 30
0.000000000
  0
VERTEX
  8
PLAIN_
 10
194.180236633
 20
-17.158320760
 30
0.000000000
  0
VERTEX
  8
PLAIN_
 10
195.384412726
 20
-17.260907778
 30
0.000000000
  0
VERTEX
  8
PLAIN_
 10
196.601921307
 20
-17.435567725
 30
0.000000000
  0
VERTEX
  8
PLAIN_
 10
197.821219233
 20
-17.667609296
 30
0.000000000
  0
VERTEX
  8
PLAIN_
 10
199.030763362
 20
-17.942341182
 30
0.000000000
  0
VERTEX
  8
PLAIN_
 10
200.219010551
 20
-18.245072076
 30
0.000000000
  0
VERTEX
  8
PLAIN_
 10
203.642777027
 20
-19.189614378
 30
0.000000000
  0
VERTEX
  8
PLAIN_
 10
204.770509246
 20
-19.478351775
 30
0.000000000
  0
VERTEX
  8
PLAIN_
 10
205.910107377
 20
-19.735203599
 30
0.000000000
  0
VERTEX
  8
PLAIN_
 10
207.072747950
 20
-19.948871517
 30
0.000000000
  0
VERTEX
  8
PLAIN_
 10
208.269607495
 20
-20.108057196
 30
0.000000000
  0
VERTEX
  8
PLAIN_
 10
209.511862540
 20
-20.201462303
 30
0.000000000
  0
VERTEX
  8
PLAIN_
 10
210.513769281
 20
-20.221326568
 30
0.000000000
  0
VERTEX
  8
PLAIN_
 10
211.538173327
 20
-20.188805054
 30
0.000000000
  0
VERTEX
  8
PLAIN_
 10
212.573349789
 20
-20.098139963
 30
0.000000000
  0
VERTEX
  8
PLAIN_
 10
213.607573782
 20
-19.943573493
 30
0.000000000
  0
VERTEX
  8
PLAIN_
 10
214.629120418
 20
-19.719347845
 30
0.000000000
  0
VERTEX
  8
PLAIN_
 10
215.131475700
 20
-19.579313516
 30
0.000000000
  0
VERTEX
  8
PLAIN_
 10
215.626264810
 20
-19.419705217
 30
0.000000000
  0
VERTEX
  8
PLAIN_
 10
216.112022138
 20
-19.239803223
 30
0.000000000
  0
VERTEX
  8
PLAIN_
 10
216.587282071
 20
-19.038887809
 30
0.000000000
  0
VERTEX
  8
PLAIN_
 10
217.050579001
 20
-18.816239250
 30
0.000000000
  0
VERTEX
  8
PLAIN_
 10
217.500447314
 20
-18.571137821
 30
0.000000000
  0
VERTEX
  8
PLAIN_
 10
218.063454256
 20
-18.221177526
 30
0.000000000
  0
VERTEX
  8
PLAIN_
 10
219.663704007
 20
-17.089964863
 30
0.000000000
  0
VERTEX
  8
PLAIN_
 10
220.188116532
 20
-16.736739822
 30
0.000000000
  0
VERTEX
  8
PLAIN_
 10
220.718320178
 20
-16.420915924
 30
0.000000000
  0
VERTEX
  8
PLAIN_
 10
221.260490832
 20
-16.157780100
 30
0.000000000
  0
VERTEX
  8
PLAIN_
 10
221.820804386
 20
-15.962619284
 30
0.000000000
  0
VERTEX
  8
PLAIN_
 10
222.302977463
 20
-15.860951834
 30
0.000000000
  0
VERTEX
  8
PLAIN_
 10
222.800352086
 20
-15.811553744
 30
0.000000000
  0
VERTEX
  8
PLAIN_
 10
223.311392914
 20
-15.809392772
 30
0.000000000
  0
VERTEX
  8
PLAIN_
 10
223.834564610
 20
-15.849436673
 30
0.000000000
  0
VERTEX
  8
PLAIN_
 10
224.368331831
 20
-15.926653203
 30
0.000000000
  0
VERTEX
  8
PLAIN_
 10
224.911159240
 20
-16.036010118
 30
0.000000000
  0
VERTEX
  8
PLAIN_
 10
226.017853261
 20
-16.331016129
 30
0.000000000
  0
VERTEX
  8
PLAIN_
 10
227.142363954
 20
-16.694196754
 30
0.000000000
  0
VERTEX
  8
PLAIN_
 10
229.395704487
 20
-17.464050045
 30
0.000000000
  0
VERTEX
  8
PLAIN_
 10
230.499968892
 20
-17.790206808
 30
0.000000000
  0
SEQEND
  0
LINE
  8
PLAIN_
  6
SOLID
 62
     7
 10
178.368483543
 20
0.000000477
 30
0.000000000
 11
183.499972926
 21
-8.887999692
 31
0.000000000
  0
LINE
  8
PLAIN_
  6
SOLID
 62
     7
 10
187.080664635
 20
-8.888000250
 30
0.000000000
 11
190.499982726
 21
-9.999004224
 31
0.000000000
  0
ARC
  8
PLAIN_
  6
SOLID
 62
     7
 10
639.909385681
 20
0.341081142
 30
0.000000000
 40
201.500000000
 50
90.000000000
 51
99.640045593
  0
LINE
  8
PLAIN_
  6
SOLID
 62
     7
 10
620.409446716
 20
-194.659039021
 30
0.000000000
 11
659.409446716
 21
-194.659039021
 31
0.000000000
  0
LINE
  8
PLAIN_
  6
SOLID
 62
     7
 10
187.080664635
 20
8.887999296
 30
0.000000000
 11
190.499982726
 21
9.999003270
 31
0.000000000
  0
ARC
  8
PLAIN_
  6
CENTER
 62
     7
 10
639.909385681
 20
0.341081142
 30
0.000000000
 40
142.500000000
 50
20.469349529
 51
63.718772888
  0
ARC
  8
PLAIN_
  6
CENTER
 62
     7
 10
639.909385681
 20
0.341081142
 30
0.000000000
 40
142.500000000
 50
188.798431396
 51
206.746978760
  0
LINE
  8
PLAIN_
  6
SOLID
 62
     7
 10
183.499968529
 20
8.887999296
 30
0.000000000
 11
224.944968224
 21
8.887999296
 31
0.000000000
  0
LINE
  8
PLAIN_
  6
SOLID
 62
     7
 10
665.809972763
 20
39.951942921
 30
0.000000000
 11
665.809957504
 21
45.677071095
 31
0.000000000
  0
LINE
  8
PLAIN_
  6
SOLID
 62
     7
 10
670.768087387
 20
37.089371204
 30
0.000000000
 11
665.809972905
 21
39.951942822
 31
0.000000000
  0
LINE
  8
PLAIN_
  6
L_DASH
 62
     7
 10
590.264385223
 20
-66.178923130
 30
0.000000000
 11
620.554386139
 21
-66.178923130
 31
0.000000000
  0
LINE
  8
PLAIN_
  6
L_DASH
 62
     7
 10
620.554386139
 20
-46.138914585
 30
0.000000000
 11
622.034387501
 21
-44.658918837
 31
0.000000000
  0
LINE
  8
PLAIN_
  6
L_DASH
 62
     7
 10
620.554386139
 20
-66.178923130
 30
0.000000000
 11
622.034386559
 21
-67.658918809
 31
0.000000000
  0
LINE
  8
PLAIN_
  6
SOLID
 62
     7
 10
675.726186752
 20
39.951950550
 30
0.000000000
 11
670.768087354
 21
37.089371074
 31
0.000000000
  0
CIRCLE
  8
PLAIN_
  6
SOLID
 62
     7
 10
670.768072128
 20
42.814507008
 30
0.000000000
 40
9.000000000
  0
LINE
  8
PLAIN_
  6
SOLID
 62
     7
 10
614.008743286
 20
45.677071095
 30
0.000000000
 11
614.008743286
 21
39.951942921
 31
0.000000000
  0
LINE
  8
PLAIN_
  6
L_DASH
 62
     7
 10
590.264385223
 20
-46.138914585
 30
0.000000000
 11
588.784383861
 21
-44.658918837
 31
0.000000000
  0
LINE
  8
PLAIN_
  6
SOLID
 62
     7
 10
226.055968285
 20
-9.999000788
 30
0.000000000
 11
190.499968529
 21
-9.999000788
 31
0.000000000
  0
LINE
  8
PLAIN_
  6
SOLID
 62
     7
 10
609.050628662
 20
48.539642811
 30
0.000000000
 11
614.008728046
 21
45.677086290
 31
0.000000000
  0
ARC
  8
PLAIN_
  6
SOLID
 62
     7
 10
639.909385681
 20
0.341081142
 30
0.000000000
 40
105.000000000
 50
342.000000000
 51
20.282189698
  0
LINE
  8
PLAIN_
  6
CENTER
 62
     7
 10
696.653589435
 20
78.442777281
 30
0.000000000
 11
732.065599024
 21
127.183227047
 31
0.000000000
  0
LINE
  8
PLAIN_
  6
SOLID
 62
     7
 10
604.092529297
 20
45.677071095
 30
0.000000000
 11
609.050613147
 21
48.539642670
 31
0.000000000
  0
LINE
  8
PLAIN_
  6
SOLID
 62
     7
 10
-70.500007629
 20
64.700005531
 30
0.000000000
 11
-70.789894115
 21
64.989892017
 31
0.000000000
  0
LINE
  8
PLAIN_
  6
L_DASH
 62
     7
 10
689.554389954
 20
-66.178923130
 30
0.000000000
 11
659.264385223
 21
-66.178923130
 31
0.000000000
  0
LINE
  8
PLAIN_
  6
L_DASH
 62
     7
 10
659.264385223
 20
-66.178923130
 30
0.000000000
 11
657.784385808
 21
-67.658918802
 31
0.000000000
  0
LINE
  8
PLAIN_
  6
SOLID
 62
     7
 10
-70.500007629
 20
-64.499999046
 30
0.000000000
 11
-70.500007629
 21
65.000000954
 31
0.000000000
  0
LINE
  8
PLAIN_
  6
SOLID
 62
     7
 10
226.055975914
 20
9.998999357
 30
0.000000000
 11
190.499983788
 21
9.998999357
 31
0.000000000
  0
LINE
  8
PLAIN_
  6
L_DASH
 62
     7
 10
657.784385681
 20
-44.658918858
 30
0.000000000
 11
657.784385681
 21
-67.658918858
 31
0.000000000
  0
LINE
  8
PLAIN_
  6
L_DASH
 62
     7
 10
659.264385223
 20
-46.138914585
 30
0.000000000
 11
659.264385223
 21
-66.178923130
 31
0.000000000
  0
LINE
  8
PLAIN_
  6
SOLID
 62
     7
 10
183.499976158
 20
-8.887999296
 30
0.000000000
 11
183.499976158
 21
8.888001680
 31
0.000000000
  0
LINE
  8
PLAIN_
  6
SOLID
 62
     7
 10
190.499976158
 20
-9.998999357
 30
0.000000000
 11
190.499976158
 21
9.999001741
 31
0.000000000
  0
LINE
  8
PLAIN_
  6
SOLID
 62
     7
 10
604.092529297
 20
39.951942921
 30
0.000000000
 11
604.092514038
 21
45.677071095
 31
0.000000000
  0
ARC
  8
PLAIN_
  6
SOLID
 62
     7
 10
639.909385681
 20
0.341081142
 30
0.000000000
 40
105.000000000
 50
35.051685532
 51
54.000000000
  0
LINE
  8
PLAIN_
  6
SOLID
 62
     7
 10
609.050643921
 20
37.089371204
 30
0.000000000
 11
604.092529438
 21
39.951942822
 31
0.000000000
  0
LINE
  8
PLAIN_
  6
CENTER
 62
     7
 10
639.909385681
 20
-0.658918858
 30
0.000000000
 11
639.909385681
 21
-222.326963902
 31
0.000000000
  0
LINE
  8
PLAIN_
  6
L_DASH
 62
     7
 10
659.264385223
 20
-46.138914585
 30
0.000000000
 11
657.784385808
 21
-44.658918913
 31
0.000000000
  0
LINE
  8
PLAIN_
  6
SOLID
 62
     7
 10
614.008743286
 20
39.951950550
 30
0.000000000
 11
609.050643888
 21
37.089371074
 31
0.000000000
  0
CIRCLE
  8
PLAIN_
  6
SOLID
 62
     7
 10
609.050628662
 20
42.814507008
 30
0.000000000
 40
9.000000000
  0
CIRCLE
  8
PLAIN_
  6
SOLID
 62
     7
 10
639.909351349
 20
-52.158912182
 30
0.000000000
 40
9.000000000
  0
LINE
  8
PLAIN_
  6
L_DASH
 62
     7
 10
689.554389954
 20
-46.138914585
 30
0.000000000
 11
691.034385643
 21
-44.658918896
 31
0.000000000
  0
LINE
  8
PLAIN_
  6
L_DASH
 62
     7
 10
689.554389954
 20
-46.138914585
 30
0.000000000
 11
689.554389954
 21
-66.178923130
 31
0.000000000
  0
LINE
  8
PLAIN_
  6
L_DASH
 62
     7
 10
691.034385681
 20
-44.658918858
 30
0.000000000
 11
691.034385681
 21
-67.658918858
 31
0.000000000
  0
LINE
  8
PLAIN_
  6
L_DASH
 62
     7
 10
691.034385681
 20
-67.658918858
 30
0.000000000
 11
689.554389992
 21
-66.178923168
 31
0.000000000
  0
LINE
  8
PLAIN_
  6
SOLID
 62
     7
 10
639.909366608
 20
-57.884047985
 30
0.000000000
 11
634.951252125
 21
-55.021476367
 31
0.000000000
  0
LINE
  8
PLAIN_
  6
SOLID
 62
     7
 10
634.951251984
 20
-55.021476269
 30
0.000000000
 11
634.951236725
 21
-49.296348095
 31
0.000000000
  0
ARC
  8
PLAIN_
  6
SOLID
 62
     7
 10
639.909385681
 20
0.341081142
 30
0.000000000
 40
105.000000000
 50
270.000000000
 51
306.000000000
  0
LINE
  8
PLAIN_
  6
SOLID
 62
     7
 10
634.951251984
 20
-49.296348095
 30
0.000000000
 11
639.909335833
 21
-46.433776520
 31
0.000000000
  0
LINE
  8
PLAIN_
  6
SOLID
 62
     7
 10
639.909351349
 20
-46.433776379
 30
0.000000000
 11
644.867450733
 21
-49.296332899
 31
0.000000000
  0
LINE
  8
PLAIN_
  6
SOLID
 62
     7
 10
644.867465973
 20
-49.296348095
 30
0.000000000
 11
644.867465973
 21
-55.021476269
 31
0.000000000
  0
LINE
  8
PLAIN_
  6
SOLID
 62
     7
 10
644.867465973
 20
-55.021468639
 30
0.000000000
 11
639.909366574
 21
-57.884048115
 31
0.000000000
  0
LINE
  8
PLAIN_
  6
SOLID
 62
     7
 10
627.409385681
 20
-66.658918858
 30
0.000000000
 11
627.409385681
 21
-52.158918858
 31
0.000000000
  0
ARC
  8
PLAIN_
  6
SOLID
 62
     7
 10
639.909385681
 20
0.341081142
 30
0.000000000
 40
44.000000000
 50
216.811557249
 51
254.146696309
  0
LINE
  8
PLAIN_
  6
SOLID
 62
     7
 10
580.172155977
 20
-37.815222890
 30
0.000000000
 11
580.172155977
 21
-22.500157995
 31
0.000000000
  0
ARC
  8
PLAIN_
  6
SOLID
 62
     7
 10
570.172155977
 20
-22.860287407
 30
0.000000000
 40
10.000000000
 50
360.000000000
 51
19.407516273
  0
LINE
  8
PLAIN_
  6
SOLID
 62
     7
 10
229.499983788
 20
-17.497409105
 30
0.000000000
 11
229.499983788
 21
-28.999999285
 31
0.000000000
  0
ARC
  8
PLAIN_
  6
SOLID
 62
     7
 10
709.646615386
 20
-22.860287407
 30
0.000000000
 40
10.000000000
 50
160.592483727
 51
180.000000000
  0
ARC
  8
PLAIN_
  6
SOLID
 62
     7
 10
639.909385681
 20
0.341081142
 30
0.000000000
 40
201.500000000
 50
8.359954407
 51
18.000000000
  0
ARC
  8
PLAIN_
  6
SOLID
 62
     7
 10
639.909385681
 20
0.341081142
 30
0.000000000
 40
201.500000000
 50
296.359954407
 51
306.000000000
  0
ARC
  8
PLAIN_
  6
SOLID
 62
     7
 10
639.909385681
 20
0.341081142
 30
0.000000000
 40
201.500000000
 50
224.359954407
 51
234.000000000
  0
ARC
  8
PLAIN_
  6
SOLID
 62
     7
 10
639.909385681
 20
0.341081142
 30
0.000000000
 40
201.500000000
 50
152.359954407
 51
162.000000000
  0
ARC
  8
PLAIN_
  6
SOLID
 62
     7
 10
709.646615386
 20
-37.815222890
 30
0.000000000
 40
10.000000000
 50
180.000000000
 51
199.380900402
  0
ARC
  8
PLAIN_
  6
SOLID
 62
     7
 10
639.909385681
 20
0.341081142
 30
0.000000000
 40
105.000000000
 50
306.000000000
 51
342.000000000
  0
ARC
  8
PLAIN_
  6
SOLID
 62
     7
 10
752.825604485
 20
-21.451750961
 30
0.000000000
 40
10.000000000
 50
111.000000000
 51
169.076225269
  0
ARC
  8
PLAIN_
  6
SOLID
 62
     7
 10
755.731404777
 20
-31.047768672
 30
0.000000000
 40
15.000000000
 50
111.000000000
 51
164.836536682
  0
LINE
  8
PLAIN_
  6
SOLID
 62
     7
 10
699.646615386
 20
-37.815222890
 30
0.000000000
 11
699.646615386
 21
-22.500157995
 31
0.000000000
  0
LINE
  8
PLAIN_
  6
SOLID
 62
     7
 10
750.355885533
 20
-17.044062275
 30
0.000000000
 11
829.803191875
 21
13.452901310
 31
0.000000000
  0
LINE
  8
PLAIN_
  6
CENTER
 62
     7
 10
529.901602377
 20
-35.402614392
 30
0.000000000
 11
439.045236535
 21
-64.923637182
 31
0.000000000
  0
LINE
  8
PLAIN_
  6
SOLID
 62
     7
 10
709.264183044
 20
177.587380181
 30
0.000000000
 11
721.264183044
 21
170.659176951
 31
0.000000000
  0
LINE
  8
PLAIN_
  6
SOLID
 62
     7
 10
697.264183044
 20
170.659176951
 30
0.000000000
 11
709.264183044
 21
177.587380181
 31
0.000000000
  0
LINE
  8
PLAIN_
  6
SOLID
 62
     7
 10
697.264183044
 20
156.802770490
 30
0.000000000
 11
697.264183044
 21
170.659176951
 31
0.000000000
  0
LINE
  8
PLAIN_
  6
SOLID
 62
     7
 10
709.264183044
 20
149.874567260
 30
0.000000000
 11
697.264183044
 21
156.802770490
 31
0.000000000
  0
ARC
  8
PLAIN_
  6
SOLID
 62
     7
 10
681.346615433
 20
-47.770623570
 30
0.000000000
 40
20.000000000
 50
0.000000000
 51
75.085889089
  0
LINE
  8
PLAIN_
  6
SOLID
 62
     7
 10
721.264183044
 20
156.802770490
 30
0.000000000
 11
709.264183044
 21
149.874567260
 31
0.000000000
  0
LINE
  8
PLAIN_
  6
SOLID
 62
     7
 10
721.264183044
 20
170.659176951
 30
0.000000000
 11
721.264183044
 21
156.802770490
 31
0.000000000
  0
CIRCLE
  8
PLAIN_
  6
SOLID
 62
     7
 10
709.264183044
 20
163.730973721
 30
0.000000000
 40
12.000000000
  0
LINE
  8
PLAIN_
  6
SOLID
 62
     7
 10
776.276736419
 20
130.437563138
 30
0.000000000
 11
786.891359589
 21
121.530836750
 31
0.000000000
  0
LINE
  8
PLAIN_
  6
SOLID
 62
     7
 10
763.255973517
 20
125.698393014
 30
0.000000000
 11
776.276736419
 21
130.437563138
 31
0.000000000
  0
LINE
  8
PLAIN_
  6
SOLID
 62
     7
 10
760.849833786
 20
112.052496503
 30
0.000000000
 11
763.255973517
 21
125.698393014
 31
0.000000000
  0
ARC
  8
PLAIN_
  6
SOLID
 62
     7
 10
20.998987478
 20
-198.581998237
 30
0.000000000
 40
3.000000000
 50
270.000000000
 51
1.389522221
  0
LINE
  8
PLAIN_
  6
SOLID
 62
     7
 10
749.241924989
 20
-12.115946696
 30
0.000000000
 11
828.011352127
 21
18.120803443
 31
0.000000000
  0
LINE
  8
PLAIN_
  6
SOLID
 62
     7
 10
836.557966760
 20
21.054253888
 30
0.000000000
 11
834.247726573
 21
22.231370976
 31
0.000000000
  0
ARC
  8
PLAIN_
  6
SOLID
 62
     7
 10
824.427672631
 20
27.456607708
 30
0.000000000
 40
10.000000000
 50
291.000000000
 51
8.359954407
  0
LINE
  8
PLAIN_
  6
SOLID
 62
     7
 10
-0.000000954
 20
-204.000000000
 30
0.000000000
 11
-0.000000954
 21
204.000001907
 31
0.000000000
  0
LINE
  8
PLAIN_
  6
SOLID
 62
     7
 10
14.639346449
 20
-205.000000000
 30
0.000000000
 11
17.178668555
 21
-202.460677894
 31
0.000000000
  0
ARC
  8
PLAIN_
  6
SOLID
 62
     7
 10
824.427672631
 20
27.456607708
 30
0.000000000
 40
15.000000000
 50
291.000000000
 51
8.359954407
  0
LINE
  8
PLAIN_
  6
SOLID
 62
     7
 10
699.346615608
 20
-67.658918858
 30
0.000000000
 11
701.346615433
 21
-65.658919207
 31
0.000000000
  0
ARC
  8
PLAIN_
  6
SOLID
 62
     7
 10
639.909385681
 20
0.341081142
 30
0.000000000
 40
196.500000000
 50
8.359954407
 51
18.000000000
  0
ARC
  8
PLAIN_
  6
SOLID
 62
     7
 10
639.909385681
 20
0.341081142
 30
0.000000000
 40
201.500000000
 50
18.000000000
 51
27.640045593
  0
ARC
  8
PLAIN_
  6
SOLID
 62
     7
 10
639.909385681
 20
0.341081142
 30
0.000000000
 40
196.500000000
 50
18.000000000
 51
27.640045593
  0
ARC
  8
PLAIN_
  6
SOLID
 62
     7
 10
718.451020318
 20
84.342340827
 30
0.000000000
 40
10.000000000
 50
226.923774731
 51
285.000000000
  0
ARC
  8
PLAIN_
  6
SOLID
 62
     7
 10
639.909385681
 20
0.341081142
 30
0.000000000
 40
105.000000000
 50
198.000000000
 51
234.000000000
  0
LINE
  8
PLAIN_
  6
SOLID
 62
     7
 10
721.039210769
 20
74.683082564
 30
0.000000000
 11
802.537731769
 21
96.520545450
 31
0.000000000
  0
ARC
  8
PLAIN_
  6
SOLID
 62
     7
 10
805.125922220
 20
86.861287187
 30
0.000000000
 40
10.000000000
 50
27.640045593
 51
105.000000000
  0
LINE
  8
PLAIN_
  6
SOLID
 62
     7
 10
771.464456957
 20
103.145770116
 30
0.000000000
 11
760.849833786
 21
112.052496503
 31
0.000000000
  0
LINE
  8
PLAIN_
  6
SOLID
 62
     7
 10
784.485219858
 20
107.884940239
 30
0.000000000
 11
771.464456957
 21
103.145770116
 31
0.000000000
  0
CIRCLE
  8
PLAIN_
  6
SOLID
 62
     7
 10
639.909385681
 20
0.341081142
 30
0.000000000
 40
19.000000000
  0
LINE
  8
PLAIN_
  6
SOLID
 62
     7
 10
786.891359589
 20
121.530836750
 30
0.000000000
 11
784.485219858
 21
107.884940239
 31
0.000000000
  0
LINE
  8
PLAIN_
  6
SOLID
 62
     7
 10
811.063015586
 20
99.519645396
 30
0.000000000
 11
809.999195653
 21
96.860675386
 31
0.000000000
  0
CIRCLE
  8
PLAIN_
  6
SOLID
 62
     7
 10
773.870596688
 20
116.791666627
 30
0.000000000
 40
12.000000000
  0
LINE
  8
PLAIN_
  6
SOLID
 62
     7
 10
823.662421971
 20
-3.128997311
 30
0.000000000
 11
830.590625202
 21
-15.128997311
 31
0.000000000
  0
LINE
  8
PLAIN_
  6
SOLID
 62
     7
 10
809.806015511
 20
-3.128997311
 30
0.000000000
 11
823.662421971
 21
-3.128997311
 31
0.000000000
  0
LINE
  8
PLAIN_
  6
SOLID
 62
     7
 10
802.877812280
 20
-15.128997311
 30
0.000000000
 11
809.806015511
 21
-3.128997311
 31
0.000000000
  0
LINE
  8
PLAIN_
  6
SOLID
 62
     7
 10
809.806015511
 20
-27.128997311
 30
0.000000000
 11
802.877812280
 21
-15.128997311
 31
0.000000000
  0
LINE
  8
PLAIN_
  6
SOLID
 62
     7
 10
823.662421971
 20
-27.128997311
 30
0.000000000
 11
809.806015511
 21
-27.128997311
 31
0.000000000
  0
LINE
  8
PLAIN_
  6
SOLID
 62
     7
 10
830.590625202
 20
-15.128997311
 30
0.000000000
 11
823.662421971
 21
-27.128997311
 31
0.000000000
  0
ARC
  8
PLAIN_
  6
SOLID
 62
     7
 10
805.125922220
 20
86.861287187
 30
0.000000000
 40
15.000000000
 50
27.640045593
 51
105.000000000
  0
LINE
  8
PLAIN_
  6
SOLID
 62
     7
 10
719.043750121
 20
79.324781397
 30
0.000000000
 11
801.243636544
 21
101.350174582
 31
0.000000000
  0
ARC
  8
PLAIN_
  6
SOLID
 62
     7
 10
715.161464445
 20
93.813668791
 30
0.000000000
 40
15.000000000
 50
231.163463318
 51
285.000000000
  0
ARC
  8
PLAIN_
  6
SOLID
 62
     7
 10
654.076201252
 20
-113.782980022
 30
0.000000000
 40
10.000000000
 50
39.000000000
 51
97.076225269
  0
ARC
  8
PLAIN_
  6
SOLID
 62
     7
 10
645.847787749
 20
-119.511892875
 30
0.000000000
 40
15.000000000
 50
39.000000000
 51
92.836536682
  0
LINE
  8
PLAIN_
  6
SOLID
 62
     7
 10
657.504977171
 20
-110.072087009
 30
0.000000000
 11
711.059880933
 21
-176.206885383
 31
0.000000000
  0
LINE
  8
PLAIN_
  6
SOLID
 62
     7
 10
661.847660867
 20
-107.489776111
 30
0.000000000
 11
714.945610740
 21
-173.060283428
 31
0.000000000
  0
LINE
  8
PLAIN_
  6
SOLID
 62
     7
 10
720.376537067
 20
-180.282110927
 30
0.000000000
 11
720.782138465
 21
-177.721192758
 31
0.000000000
  0
ARC
  8
PLAIN_
  6
SOLID
 62
     7
 10
639.909385681
 20
0.341081142
 30
0.000000000
 40
105.000000000
 50
234.000000000
 51
270.000000000
  0
ARC
  8
PLAIN_
  6
SOLID
 62
     7
 10
722.717070355
 20
-166.767079517
 30
0.000000000
 40
10.000000000
 50
219.000000000
 51
296.359954407
  0
CIRCLE
  8
PLAIN_
  6
SOLID
 62
     7
 10
816.734218741
 20
-15.128997311
 30
0.000000000
 40
12.000000000
  0
ARC
  8
PLAIN_
  6
SOLID
 62
     7
 10
722.717070355
 20
-166.767079517
 30
0.000000000
 40
15.000000000
 50
219.000000000
 51
296.359954407
  0
LINE
  8
PLAIN_
  6
SOLID
 62
     7
 10
804.056764621
 20
-84.150188366
 30
0.000000000
 11
804.056764621
 21
-98.006594827
 31
0.000000000
  0
LINE
  8
PLAIN_
  6
SOLID
 62
     7
 10
792.056764621
 20
-77.221985136
 30
0.000000000
 11
804.056764621
 21
-84.150188366
 31
0.000000000
  0
LINE
  8
PLAIN_
  6
SOLID
 62
     7
 10
780.056764621
 20
-84.150188366
 30
0.000000000
 11
792.056764621
 21
-77.221985136
 31
0.000000000
  0
LINE
  8
PLAIN_
  6
SOLID
 62
     7
 10
780.056764621
 20
-98.006594827
 30
0.000000000
 11
780.056764621
 21
-84.150188366
 31
0.000000000
  0
LINE
  8
PLAIN_
  6
SOLID
 62
     7
 10
792.056764621
 20
-104.934798057
 30
0.000000000
 11
780.056764621
 21
-98.006594827
 31
0.000000000
  0
LINE
  8
PLAIN_
  6
SOLID
 62
     7
 10
804.056764621
 20
-98.006594827
 30
0.000000000
 11
792.056764621
 21
-104.934798057
 31
0.000000000
  0
CIRCLE
  8
PLAIN_
  6
SOLID
 62
     7
 10
792.056764621
 20
-91.078391597
 30
0.000000000
 40
12.000000000
  0
LINE
  8
PLAIN_
  6
SOLID
 62
     7
 10
693.222606064
 20
-176.196147617
 30
0.000000000
 11
683.424647093
 21
-185.994106588
 31
0.000000000
  0
LINE
  8
PLAIN_
  6
SOLID
 62
     7
 10
689.636304175
 20
-162.811886757
 30
0.000000000
 11
693.222606064
 21
-176.196147617
 31
0.000000000
  0
LINE
  8
PLAIN_
  6
SOLID
 62
     7
 10
676.252043315
 20
-159.225584868
 30
0.000000000
 11
689.636304175
 21
-162.811886757
 31
0.000000000
  0
LINE
  8
PLAIN_
  6
SOLID
 62
     7
 10
666.454084344
 20
-169.023543840
 30
0.000000000
 11
676.252043315
 21
-159.225584868
 31
0.000000000
  0
ARC
  8
PLAIN_
  6
SOLID
 62
     7
 10
639.909385681
 20
0.341081142
 30
0.000000000
 40
196.500000000
 50
296.359954407
 51
306.000000000
  0
ARC
  8
PLAIN_
  6
SOLID
 62
     7
 10
639.909385681
 20
0.341081142
 30
0.000000000
 40
201.500000000
 50
306.000000000
 51
315.640045593
  0
ARC
  8
PLAIN_
  6
SOLID
 62
     7
 10
639.909385681
 20
0.341081142
 30
0.000000000
 40
196.500000000
 50
306.000000000
 51
315.640045593
  0
ARC
  8
PLAIN_
  6
SOLID
 62
     7
 10
744.070030950
 20
-48.398635488
 30
0.000000000
 40
10.000000000
 50
154.923774731
 51
213.000000000
  0
LINE
  8
PLAIN_
  6
SOLID
 62
     7
 10
735.683325270
 20
-53.845025838
 30
0.000000000
 11
781.636414653
 21
-124.606578158
 31
0.000000000
  0
ARC
  8
PLAIN_
  6
SOLID
 62
     7
 10
773.249708974
 20
-130.052968508
 30
0.000000000
 40
10.000000000
 50
315.640045593
 51
33.000000000
  0
ARC
  8
PLAIN_
  6
SOLID
 62
     7
 10
639.909385681
 20
0.341081142
 30
0.000000000
 40
105.000000000
 50
126.000000000
 51
162.000000000
  0
LINE
  8
PLAIN_
  6
SOLID
 62
     7
 10
787.123185781
 20
-131.787832034
 30
0.000000000
 11
784.265616589
 21
-131.597746075
 31
0.000000000
  0
LINE
  8
PLAIN_
  6
SOLID
 62
     7
 10
670.040386233
 20
-182.407804699
 30
0.000000000
 11
666.454084344
 21
-169.023543840
 31
0.000000000
  0
LINE
  8
PLAIN_
  6
SOLID
 62
     7
 10
683.424647093
 20
-185.994106588
 30
0.000000000
 11
670.040386233
 21
-182.407804699
 31
0.000000000
  0
CIRCLE
  8
PLAIN_
  6
SOLID
 62
     7
 10
679.838345204
 20
-172.609845728
 30
0.000000000
 40
12.000000000
  0
LINE
  8
PLAIN_
  6
SOLID
 62
     7
 10
606.908629389
 20
-184.609845728
 30
0.000000000
 11
593.052222928
 21
-184.609845728
 31
0.000000000
  0
LINE
  8
PLAIN_
  6
SOLID
 62
     7
 10
613.836832619
 20
-172.609845728
 30
0.000000000
 11
606.908629389
 21
-184.609845728
 31
0.000000000
  0
LINE
  8
PLAIN_
  6
SOLID
 62
     7
 10
606.908629389
 20
-160.609845728
 30
0.000000000
 11
613.836832619
 21
-172.609845728
 31
0.000000000
  0
LINE
  8
PLAIN_
  6
SOLID
 62
     7
 10
593.052222928
 20
-160.609845728
 30
0.000000000
 11
606.908629389
 21
-160.609845728
 31
0.000000000
  0
LINE
  8
PLAIN_
  6
SOLID
 62
     7
 10
586.124019698
 20
-172.609845728
 30
0.000000000
 11
593.052222928
 21
-160.609845728
 31
0.000000000
  0
LINE
  8
PLAIN_
  6
SOLID
 62
     7
 10
593.052222928
 20
-184.609845728
 30
0.000000000
 11
586.124019698
 21
-172.609845728
 31
0.000000000
  0
CIRCLE
  8
PLAIN_
  6
SOLID
 62
     7
 10
599.980426158
 20
-172.609845728
 30
0.000000000
 40
12.000000000
  0
LINE
  8
PLAIN_
  6
SOLID
 62
     7
 10
494.690209972
 20
-103.078391597
 30
0.000000000
 11
480.833803511
 21
-103.078391597
 31
0.000000000
  0
LINE
  8
PLAIN_
  6
SOLID
 62
     7
 10
501.618413202
 20
-91.078391597
 30
0.000000000
 11
494.690209972
 21
-103.078391597
 31
0.000000000
  0
ARC
  8
PLAIN_
  6
SOLID
 62
     7
 10
773.249708974
 20
-130.052968508
 30
0.000000000
 40
15.000000000
 50
315.640045593
 51
33.000000000
  0
LINE
  8
PLAIN_
  6
SOLID
 62
     7
 10
739.481211940
 20
-50.512866164
 30
0.000000000
 11
785.829767493
 21
-121.883382983
 31
0.000000000
  0
ARC
  8
PLAIN_
  6
SOLID
 62
     7
 10
752.061270459
 20
-42.343280639
 30
0.000000000
 40
15.000000000
 50
159.163463318
 51
213.000000000
  0
ARC
  8
PLAIN_
  6
SOLID
 62
     7
 10
535.748740413
 20
-48.398635488
 30
0.000000000
 40
10.000000000
 50
327.000000000
 51
25.076225269
  0
ARC
  8
PLAIN_
  6
SOLID
 62
     7
 10
527.757500903
 20
-42.343280639
 30
0.000000000
 40
15.000000000
 50
327.000000000
 51
20.836536682
  0
LINE
  8
PLAIN_
  6
SOLID
 62
     7
 10
540.337559422
 20
-50.512866164
 30
0.000000000
 11
493.989003869
 21
-121.883382983
 31
0.000000000
  0
LINE
  8
PLAIN_
  6
SOLID
 62
     7
 10
544.135446092
 20
-53.845025838
 30
0.000000000
 11
498.182356709
 21
-124.606578158
 31
0.000000000
  0
LINE
  8
PLAIN_
  6
SOLID
 62
     7
 10
494.690209972
 20
-79.078391597
 30
0.000000000
 11
501.618413202
 21
-91.078391597
 31
0.000000000
  0
LINE
  8
PLAIN_
  6
SOLID
 62
     7
 10
492.992239137
 20
-132.003363458
 30
0.000000000
 11
495.553154774
 21
-131.597746075
 31
0.000000000
  0
ARC
  8
PLAIN_
  6
SOLID
 62
     7
 10
506.569062389
 20
-130.052968508
 30
0.000000000
 40
10.000000000
 50
147.000000000
 51
224.359954407
  0
ARC
  8
PLAIN_
  6
SOLID
 62
     7
 10
506.569062389
 20
-130.052968508
 30
0.000000000
 40
15.000000000
 50
147.000000000
 51
224.359954407
  0
ARC
  8
PLAIN_
  6
SOLID
 62
     7
 10
639.909385681
 20
0.341081142
 30
0.000000000
 40
196.500000000
 50
224.359954407
 51
234.000000000
  0
LINE
  8
PLAIN_
  6
SOLID
 62
     7
 10
723.100791931
 20
99.544350290
 30
0.000000000
 11
709.850791931
 21
107.194241357
 31
0.000000000
  0
LINE
  8
PLAIN_
  6
SOLID
 62
     7
 10
709.850791931
 20
107.194241357
 30
0.000000000
 11
709.850791931
 21
122.494023490
 31
0.000000000
  0
ARC
  8
PLAIN_
  6
SOLID
 62
     7
 10
115.889915602
 20
202.000000000
 30
0.000000000
 40
12.000000000
 50
216.107210108
 51
270.000000000
  0
CIRCLE
  8
PLAIN_
  6
SOLID
 62
     7
 10
723.100791931
 20
114.844132900
 30
0.000000000
 40
16.000000000
  0
CIRCLE
  8
PLAIN_
  6
SOLID
 62
     7
 10
504.383872986
 20
-43.693830967
 30
0.000000000
 40
16.000000000
  0
ARC
  8
PLAIN_
  6
SOLID
 62
     7
 10
504.383872986
 20
-43.693830967
 30
0.000000000
 40
10.000000000
 50
90.000000000
 51
360.000000000
  0
CIRCLE
  8
PLAIN_
  6
SOLID
 62
     7
 10
504.383872986
 20
-43.693830967
 30
0.000000000
 40
8.466412544
  0
LINE
  8
PLAIN_
  6
SOLID
 62
     7
 10
480.833803511
 20
-79.078391597
 30
0.000000000
 11
494.690209972
 21
-79.078391597
 31
0.000000000
  0
LINE
  8
PLAIN_
  6
SOLID
 62
     7
 10
473.905600281
 20
-91.078391597
 30
0.000000000
 11
480.833803511
 21
-79.078391597
 31
0.000000000
  0
LINE
  8
PLAIN_
  6
SOLID
 62
     7
 10
480.833803511
 20
-103.078391597
 30
0.000000000
 11
473.905600281
 21
-91.078391597
 31
0.000000000
  0
CIRCLE
  8
PLAIN_
  6
SOLID
 62
     7
 10
487.762006742
 20
-91.078391597
 30
0.000000000
 40
12.000000000
  0
LINE
  8
PLAIN_
  6
SOLID
 62
     7
 10
620.409446716
 20
-162.659039021
 30
0.000000000
 11
659.409446716
 21
-162.659039021
 31
0.000000000
  0
ARC
  8
PLAIN_
  6
SOLID
 62
     7
 10
126.499938011
 20
178.000000000
 30
0.000000000
 40
12.000000000
 50
0.000000000
 51
90.000000000
  0
LINE
  8
PLAIN_
  6
SOLID
 62
     7
 10
463.084552621
 20
-28.985403771
 30
0.000000000
 11
451.084552621
 21
-22.057200541
 31
0.000000000
  0
ARC
  8
PLAIN_
  6
SOLID
 62
     7
 10
639.909385681
 20
0.341081142
 30
0.000000000
 40
105.000000000
 50
162.000000000
 51
198.000000000
  0
ARC
  8
PLAIN_
  6
SOLID
 62
     7
 10
639.909385681
 20
0.341081142
 30
0.000000000
 40
201.500000000
 50
234.000000000
 51
243.640045593
  0
ARC
  8
PLAIN_
  6
SOLID
 62
     7
 10
639.909385681
 20
0.341081142
 30
0.000000000
 40
196.500000000
 50
234.000000000
 51
243.640045593
  0
ARC
  8
PLAIN_
  6
SOLID
 62
     7
 10
141.499938011
 20
162.916142464
 30
0.000000000
 40
3.000000000
 50
180.000000000
 51
250.528779366
  0
ARC
  8
PLAIN_
  6
SOLID
 62
     7
 10
63.722042094
 20
-147.778398730
 30
0.000000000
 40
17.000000000
 50
91.605534988
 51
157.778098610
  0
LINE
  8
PLAIN_
  6
SOLID
 62
     7
 10
475.084552621
 20
-22.057200541
 30
0.000000000
 11
463.084552621
 21
-28.985403771
 31
0.000000000
  0
LINE
  8
PLAIN_
  6
SOLID
 62
     7
 10
475.084552621
 20
-8.200794080
 30
0.000000000
 11
475.084552621
 21
-22.057200541
 31
0.000000000
  0
LINE
  8
PLAIN_
  6
SOLID
 62
     7
 10
463.084552621
 20
-1.272590850
 30
0.000000000
 11
475.084552621
 21
-8.200794080
 31
0.000000000
  0
LINE
  8
PLAIN_
  6
SOLID
 62
     7
 10
451.084552621
 20
-8.200794080
 30
0.000000000
 11
463.084552621
 21
-1.272590850
 31
0.000000000
  0
LINE
  8
PLAIN_
  6
SOLID
 62
     7
 10
451.084552621
 20
-22.057200541
 30
0.000000000
 11
451.084552621
 21
-8.200794080
 31
0.000000000
  0
CIRCLE
  8
PLAIN_
  6
SOLID
 62
     7
 10
463.084552621
 20
-15.128997311
 30
0.000000000
 40
12.000000000
  0
ARC
  8
PLAIN_
  6
SOLID
 62
     7
 10
625.742570110
 20
-113.782980022
 30
0.000000000
 40
10.000000000
 50
82.923774731
 51
141.000000000
  0
LINE
  8
PLAIN_
  6
SOLID
 62
     7
 10
617.971110496
 20
-107.489776111
 30
0.000000000
 11
564.873160622
 21
-173.060283428
 31
0.000000000
  0
ARC
  8
PLAIN_
  6
SOLID
 62
     7
 10
96.499938011
 20
187.856847274
 30
0.000000000
 40
12.000000000
 50
36.107210108
 51
88.999659901
  0
LINE
  8
PLAIN_
  6
SOLID
 62
     7
 10
499.019971444
 20
104.791666627
 30
0.000000000
 11
492.091768214
 21
116.791666627
 31
0.000000000
  0
ARC
  8
PLAIN_
  6
SOLID
 62
     7
 10
557.101701008
 20
-166.767079517
 30
0.000000000
 40
10.000000000
 50
243.640045593
 51
321.000000000
  0
LINE
  8
PLAIN_
  6
SOLID
 62
     7
 10
559.738887851
 20
-180.497642351
 30
0.000000000
 11
559.036632898
 21
-177.721192758
 31
0.000000000
  0
ARC
  8
PLAIN_
  6
SOLID
 62
     7
 10
557.101701008
 20
-166.767079517
 30
0.000000000
 40
15.000000000
 50
243.640045593
 51
321.000000000
  0
LINE
  8
PLAIN_
  6
SOLID
 62
     7
 10
512.876377905
 20
104.791666627
 30
0.000000000
 11
499.019971444
 21
104.791666627
 31
0.000000000
  0
LINE
  8
PLAIN_
  6
SOLID
 62
     7
 10
519.804581135
 20
116.791666627
 30
0.000000000
 11
512.876377905
 21
104.791666627
 31
0.000000000
  0
LINE
  8
PLAIN_
  6
SOLID
 62
     7
 10
513.991189793
 20
126.860755795
 30
0.000000000
 11
519.804581135
 21
116.791666627
 31
0.000000000
  0
LINE
  8
PLAIN_
  6
SOLID
 62
     7
 10
622.313794191
 20
-110.072087009
 30
0.000000000
 11
568.758890430
 21
-176.206885383
 31
0.000000000
  0
ARC
  8
PLAIN_
  6
SOLID
 62
     7
 10
633.970983613
 20
-119.511892875
 30
0.000000000
 40
15.000000000
 50
87.163463318
 51
141.000000000
  0
ARC
  8
PLAIN_
  6
SOLID
 62
     7
 10
561.367751044
 20
84.342340827
 30
0.000000000
 40
10.000000000
 50
255.000000000
 51
313.076225269
  0
LINE
  8
PLAIN_
  6
SOLID
 62
     7
 10
120.499938011
 20
-131.015181541
 30
0.000000000
 11
120.499938011
 21
-178.835021019
 31
0.000000000
  0
LINE
  8
PLAIN_
  6
L_DASH
 62
     7
 10
140.499938011
 20
-140.000000000
 30
0.000000000
 11
120.499937860
 21
-140.366546630
 31
0.000000000
  0
ARC
  8
PLAIN_
  6
SOLID
 62
     7
 10
564.657306918
 20
93.813668791
 30
0.000000000
 40
15.000000000
 50
255.000000000
 51
308.836536682
  0
LINE
  8
PLAIN_
  6
SOLID
 62
     7
 10
560.775021241
 20
79.324781397
 30
0.000000000
 11
478.575134819
 21
101.350174582
 31
0.000000000
  0
LINE
  8
PLAIN_
  6
SOLID
 62
     7
 10
558.779560593
 20
74.683082564
 30
0.000000000
 11
477.281039593
 21
96.520545450
 31
0.000000000
  0
LINE
  8
PLAIN_
  6
SOLID
 62
     7
 10
468.642444201
 20
99.170908226
 30
0.000000000
 11
469.819575709
 21
96.860675386
 31
0.000000000
  0
ARC
  8
PLAIN_
  6
SOLID
 62
     7
 10
123.499938011
 20
-178.835021019
 30
0.000000000
 40
3.000000000
 50
180.000000000
 51
273.198833045
  0
ARC
  8
PLAIN_
  6
SOLID
 62
     7
 10
474.692849142
 20
86.861287187
 30
0.000000000
 40
10.000000000
 50
75.000000000
 51
152.359954407
  0
ARC
  8
PLAIN_
  6
SOLID
 62
     7
 10
474.692849142
 20
86.861287187
 30
0.000000000
 40
15.000000000
 50
75.000000000
 51
152.359954407
  0
ARC
  8
PLAIN_
  6
SOLID
 62
     7
 10
639.909385681
 20
0.341081142
 30
0.000000000
 40
196.500000000
 50
152.359954407
 51
162.000000000
  0
ARC
  8
PLAIN_
  6
SOLID
 62
     7
 10
639.909385681
 20
0.341081142
 30
0.000000000
 40
201.500000000
 50
162.000000000
 51
171.640045593
  0
ARC
  8
PLAIN_
  6
SOLID
 62
     7
 10
138.499938011
 20
-175.993651390
 30
0.000000000
 40
5.000000000
 50
273.000549316
 51
293.578186035
  0
LINE
  8
PLAIN_
  6
SOLID
 62
     7
 10
140.499938011
 20
0.000000000
 30
0.000000000
 11
140.499938011
 21
-180.576170921
 31
0.000000000
  0
LINE
  8
PLAIN_
  6
SOLID
 62
     7
 10
152.499938965
 20
0.000000000
 30
0.000000000
 11
152.499938965
 21
57.999998093
 31
0.000000000
  0
LINE
  8
PLAIN_
  6
SOLID
 62
     7
 10
150.499938965
 20
0.000000000
 30
0.000000000
 11
150.499938965
 21
-131.499937057
 31
0.000000000
  0
LINE
  8
PLAIN_
  6
SOLID
 62
     7
 10
140.499938011
 20
160.087715339
 30
0.000000000
 11
140.499938011
 21
0.000000000
 31
0.000000000
  0
ARC
  8
PLAIN_
  6
SOLID
 62
     7
 10
20.500192163
 20
206.186470372
 30
0.000000000
 40
5.000000000
 50
221.341722310
 51
268.999659901
  0
ARC
  8
PLAIN_
  6
SOLID
 62
     7
 10
-118.645997047
 20
-73.274047852
 30
0.000000000
 40
180.000000000
 50
323.456152540
 51
337.778098610
  0
ARC
  8
PLAIN_
  6
SOLID
 62
     7
 10
639.909385681
 20
0.341081142
 30
0.000000000
 40
196.500000000
 50
162.000000000
 51
171.640045593
  0
LINE
  8
PLAIN_
  6
SOLID
 62
     7
 10
19.299988898
 20
-201.581998237
 30
0.000000000
 11
20.998987478
 21
-201.581998237
 31
0.000000000
  0
ARC
  8
PLAIN_
  6
SOLID
 62
     7
 10
526.993166877
 20
-21.451750961
 30
0.000000000
 40
10.000000000
 50
10.923774731
 51
69.000000000
  0
LINE
  8
PLAIN_
  6
SOLID
 62
     7
 10
530.576846373
 20
-12.115946696
 30
0.000000000
 11
451.807419235
 21
18.120803443
 31
0.000000000
  0
ARC
  8
PLAIN_
  6
SOLID
 62
     7
 10
455.391098731
 20
27.456607708
 30
0.000000000
 40
10.000000000
 50
171.640045593
 51
249.000000000
  0
LINE
  8
PLAIN_
  6
SOLID
 62
     7
 10
150.499938965
 20
-59.999998093
 30
0.000000000
 11
152.499938965
 21
-57.999998093
 31
0.000000000
  0
LINE
  8
PLAIN_
  6
SOLID
 62
     7
 10
152.499938965
 20
0.000000000
 30
0.000000000
 11
152.499938965
 21
-57.999998093
 31
0.000000000
  0
LINE
  8
PLAIN_
  6
SOLID
 62
     7
 10
443.147493027
 20
20.705516718
 30
0.000000000
 11
445.571044790
 21
22.231370976
 31
0.000000000
  0
ARC
  8
PLAIN_
  6
SOLID
 62
     7
 10
455.391098731
 20
27.456607708
 30
0.000000000
 40
15.000000000
 50
171.640045593
 51
249.000000000
  0
LINE
  8
PLAIN_
  6
SOLID
 62
     7
 10
529.462885829
 20
-17.044062275
 30
0.000000000
 11
450.015579488
 21
13.452901310
 31
0.000000000
  0
LINE
  8
PLAIN_
  6
SOLID
 62
     7
 10
499.019971444
 20
128.791666627
 30
0.000000000
 11
510.726957445
 21
128.791666627
 31
0.000000000
  0
LINE
  8
PLAIN_
  6
SOLID
 62
     7
 10
492.091768214
 20
116.791666627
 30
0.000000000
 11
499.019971444
 21
128.791666627
 31
0.000000000
  0
CIRCLE
  8
PLAIN_
  6
SOLID
 62
     7
 10
505.948174675
 20
116.791666627
 30
0.000000000
 40
12.000000000
  0
ARC
  8
PLAIN_
  6
SOLID
 62
     7
 10
524.087366586
 20
-31.047768672
 30
0.000000000
 40
15.000000000
 50
15.163463318
 51
69.000000000
  0
LINE
  8
PLAIN_
  6
SOLID
 62
     7
 10
680.977741241
 20
193.765717983
 30
0.000000000
 11
679.144332886
 21
191.932298183
 31
0.000000000
  0
LINE
  8
PLAIN_
  6
SOLID
 62
     7
 10
570.554588318
 20
149.874567260
 30
0.000000000
 11
559.557868937
 21
156.223526155
 31
0.000000000
  0
LINE
  8
PLAIN_
  6
SOLID
 62
     7
 10
598.474346161
 20
193.765717983
 30
0.000000000
 11
600.674438477
 21
191.932298183
 31
0.000000000
  0
ARC
  8
PLAIN_
  6
SOLID
 62
     7
 10
584.290140150
 20
100.996431356
 30
0.000000000
 40
10.000000000
 50
298.923774731
 51
357.000000000
  0
LINE
  8
PLAIN_
  6
SOLID
 62
     7
 10
582.554588318
 20
156.802770490
 30
0.000000000
 11
570.554588318
 21
149.874567260
 31
0.000000000
  0
LINE
  8
PLAIN_
  6
SOLID
 62
     7
 10
582.554588318
 20
170.659176951
 30
0.000000000
 11
582.554588318
 21
156.802770490
 31
0.000000000
  0
POLYLINE
  8
PLAIN_
  6
SOLID
 62
     7
 66
     1
 10
0.000000000
 20
0.000000000
 30
0.000000000
  0
VERTEX
  8
PLAIN_
 10
590.109992981
 20
42.114518642
 30
0.000000000
  0
VERTEX
  8
PLAIN_
 10
592.614118814
 20
44.556490183
 30
0.000000000
  0
VERTEX
  8
PLAIN_
 10
593.884802252
 20
45.756511159
 30
0.000000000
  0
VERTEX
  8
PLAIN_
 10
595.177829742
 20
46.931374311
 30
0.000000000
  0
VERTEX
  8
PLAIN_
 10
596.500649065
 20
48.072693668
 30
0.000000000
  0
VERTEX
  8
PLAIN_
 10
597.860707998
 20
49.172083259
 30
0.000000000
  0
VERTEX
  8
PLAIN_
 10
599.265454322
 20
50.221157111
 30
0.000000000
  0
VERTEX
  8
PLAIN_
 10
599.986912686
 20
50.724205020
 30
0.000000000
  0
VERTEX
  8
PLAIN_
 10
600.722335815
 20
51.211529255
 30
0.000000000
  0
VERTEX
  8
PLAIN_
 10
601.818586230
 20
51.884829700
 30
0.000000000
  0
VERTEX
  8
PLAIN_
 10
602.379558638
 20
52.197632872
 30
0.000000000
  0
VERTEX
  8
PLAIN_
 10
602.949648857
 20
52.488911629
 30
0.000000000
  0
VERTEX
  8
PLAIN_
 10
603.529271647
 20
52.754446186
 30
0.000000000
  0
VERTEX
  8
PLAIN_
 10
604.118841767
 20
52.990016758
 30
0.000000000
  0
VERTEX
  8
PLAIN_
 10
604.718773976
 20
53.191403560
 30
0.000000000
  0
VERTEX
  8
PLAIN_
 10
605.329483032
 20
53.354386806
 30
0.000000000
  0
VERTEX
  8
PLAIN_
 10
606.227481842
 20
53.522718072
 30
0.000000000
  0
VERTEX
  8
PLAIN_
 10
607.137107849
 20
53.646764278
 30
0.000000000
  0
SEQEND
  0
ARC
  8
PLAIN_
  6
SOLID
 62
     7
 10
19.299988898
 20
-204.581998237
 30
0.000000000
 40
3.000000000
 50
90.000000000
 51
135.000000000
  0
POLYLINE
  8
PLAIN_
  6
SOLID
 62
     7
 66
     1
 10
0.000000000
 20
0.000000000
 30
0.000000000
  0
VERTEX
  8
PLAIN_
 10
689.708778381
 20
42.114518642
 30
0.000000000
  0
VERTEX
  8
PLAIN_
 10
687.204652548
 20
44.556490183
 30
0.000000000
  0
VERTEX
  8
PLAIN_
 10
685.933969110
 20
45.756511159
 30
0.000000000
  0
VERTEX
  8
PLAIN_
 10
684.640941620
 20
46.931374311
 30
0.000000000
  0
VERTEX
  8
PLAIN_
 10
683.318122298
 20
48.072693668
 30
0.000000000
  0
VERTEX
  8
PLAIN_
 10
681.958063364
 20
49.172083259
 30
0.000000000
  0
VERTEX
  8
PLAIN_
 10
680.553317040
 20
50.221157111
 30
0.000000000
  0
VERTEX
  8
PLAIN_
 10
679.831858676
 20
50.724205020
 30
0.000000000
  0
VERTEX
  8
PLAIN_
 10
679.096435547
 20
51.211529255
 30
0.000000000
  0
VERTEX
  8
PLAIN_
 10
678.000185132
 20
51.884829700
 30
0.000000000
  0
VERTEX
  8
PLAIN_
 10
677.439212725
 20
52.197632872
 30
0.000000000
  0
VERTEX
  8
PLAIN_
 10
676.869122505
 20
52.488911629
 30
0.000000000
  0
VERTEX
  8
PLAIN_
 10
676.289499715
 20
52.754446186
 30
0.000000000
  0
VERTEX
  8
PLAIN_
 10
675.699929595
 20
52.990016758
 30
0.000000000
  0
VERTEX
  8
PLAIN_
 10
675.099997386
 20
53.191403560
 30
0.000000000
  0
VERTEX
  8
PLAIN_
 10
674.489288330
 20
53.354386806
 30
0.000000000
  0
VERTEX
  8
PLAIN_
 10
673.591289520
 20
53.522718072
 30
0.000000000
  0
VERTEX
  8
PLAIN_
 10
672.681663513
 20
53.646764278
 30
0.000000000
  0
SEQEND
  0
LINE
  8
PLAIN_
  6
SOLID
 62
     7
 10
149.499935150
 20
-132.500001907
 30
0.000000000
 11
150.499938965
 21
-131.499937057
 31
0.000000000
  0
ARC
  8
PLAIN_
  6
SOLID
 62
     7
 10
117.499938011
 20
-131.015176857
 30
0.000000000
 40
3.000000000
 50
0.000000000
 51
92.926770102
  0
ARC
  8
PLAIN_
  6
SOLID
 62
     7
 10
639.909385681
 20
0.341081142
 30
0.000000000
 40
50.000000000
 50
18.000026000
 51
33.872429405
  0
ARC
  8
PLAIN_
  6
SOLID
 62
     7
 10
228.999976158
 20
11.999998808
 30
0.000000000
 40
1.500000000
 50
270.000017986
 51
0.000000000
  0
LINE
  8
PLAIN_
  6
SOLID
 62
     7
 10
138.499938011
 20
178.000000000
 30
0.000000000
 11
138.499938011
 21
162.916142464
 31
0.000000000
  0
ARC
  8
PLAIN_
  6
SOLID
 62
     7
 10
695.528631212
 20
100.996431356
 30
0.000000000
 40
10.000000000
 50
183.000000000
 51
241.076225269
  0
LINE
  8
PLAIN_
  6
SOLID
 62
     7
 10
115.889915602
 20
190.000000000
 30
0.000000000
 11
126.499938011
 21
190.000000000
 31
0.000000000
  0
LINE
  8
PLAIN_
  6
SOLID
 62
     7
 10
63.245732614
 20
-130.785072708
 30
0.000000000
 11
117.346759323
 21
-128.019090027
 31
0.000000000
  0
LINE
  8
PLAIN_
  6
SOLID
 62
     7
 10
570.554588318
 20
177.587380181
 30
0.000000000
 11
582.554588318
 21
170.659176951
 31
0.000000000
  0
LINE
  8
PLAIN_
  6
SOLID
 62
     7
 10
97.281477883
 20
199.845029985
 30
0.000000000
 11
20.412900456
 21
201.187232414
 31
0.000000000
  0
ARC
  8
PLAIN_
  6
SOLID
 62
     7
 10
34.000272330
 20
-186.407227977
 30
0.000000000
 40
10.000000000
 50
143.456152540
 51
179.989741184
  0
LINE
  8
PLAIN_
  6
SOLID
 62
     7
 10
559.018612120
 20
170.927081218
 30
0.000000000
 11
570.554588318
 21
177.587380181
 31
0.000000000
  0
ARC
  8
PLAIN_
  6
SOLID
 62
     7
 10
570.554588318
 20
163.730973721
 30
0.000000000
 40
12.000000000
 50
205.955926897
 51
155.334116402
  0
ARC
  8
PLAIN_
  6
SOLID
 62
     7
 10
639.909385681
 20
0.341081142
 30
0.000000000
 40
105.000000000
 50
54.000000000
 51
90.000000000
  0
LINE
  8
PLAIN_
  6
SOLID
 62
     7
 10
685.542335865
 20
100.473071793
 30
0.000000000
 11
681.126569237
 21
184.730918405
 31
0.000000000
  0
LINE
  8
PLAIN_
  6
L_DASH
 62
     7
 10
639.909399900
 20
160.341092611
 30
0.000000000
 11
560.010572776
 21
160.341092611
 31
0.000000000
  0
ARC
  8
PLAIN_
  6
SOLID
 62
     7
 10
639.909385681
 20
0.341081142
 30
0.000000000
 40
105.000000000
 50
90.000000000
 51
126.000000000
  0
ARC
  8
PLAIN_
  6
SOLID
 62
     7
 10
671.140273889
 20
184.207558842
 30
0.000000000
 40
10.000000000
 50
3.000000000
 51
80.359954407
  0
ARC
  8
PLAIN_
  6
L_DASH
 62
     7
 10
639.909385681
 20
0.341081142
 30
0.000000000
 40
205.000000000
 50
115.697125806
 51
126.000000000
  0
LINE
  8
PLAIN_
  6
SOLID
 62
     7
 10
16.746275530
 20
202.883727585
 30
0.000000000
 11
14.884383647
 21
204.999964714
 31
0.000000000
  0
LINE
  8
PLAIN_
  6
SOLID
 62
     7
 10
23.998105301
 20
-198.509250155
 30
0.000000000
 11
24.000272490
 21
-186.405437476
 31
0.000000000
  0
LINE
  8
PLAIN_
  6
SOLID
 62
     7
 10
-0.000000954
 20
204.000001907
 30
0.000000000
 11
0.999999046
 21
205.000001907
 31
0.000000000
  0
LINE
  8
PLAIN_
  6
CENTER
 62
     7
 10
639.909385681
 20
0.336704595
 30
0.000000000
 11
639.909385681
 21
226.754304409
 31
0.000000000
  0
LINE
  8
PLAIN_
  6
SOLID
 62
     7
 10
140.499938965
 20
-132.500001907
 30
0.000000000
 11
149.499935150
 21
-132.500001907
 31
0.000000000
  0
ARC
  8
PLAIN_
  6
SOLID
 62
     7
 10
639.909385681
 20
0.341081142
 30
0.000000000
 40
196.500000000
 50
80.359954407
 51
90.000000000
  0
ARC
  8
PLAIN_
  6
SOLID
 62
     7
 10
574.265843303
 20
100.794679107
 30
0.000000000
 40
15.000000000
 50
303.163463318
 51
357.000000000
  0
LINE
  8
PLAIN_
  6
SOLID
 62
     7
 10
513.852783757
 20
130.149489913
 30
0.000000000
 11
512.989347897
 21
127.492107581
 31
0.000000000
  0
ARC
  8
PLAIN_
  6
SOLID
 62
     7
 10
639.909385681
 20
0.341081142
 30
0.000000000
 40
196.500000000
 50
90.000000000
 51
99.640045593
  0
LINE
  8
PLAIN_
  6
SOLID
 62
     7
 10
589.245286324
 20
100.009639763
 30
0.000000000
 11
593.699054452
 21
184.992598186
 31
0.000000000
  0
ARC
  8
PLAIN_
  6
SOLID
 62
     7
 10
639.909385681
 20
0.341081142
 30
0.000000000
 40
87.500000000
 50
351.281442054
 51
16.641079084
  0
LINE
  8
PLAIN_
  6
SOLID
 62
     7
 10
594.276435498
 20
100.473071793
 30
0.000000000
 11
598.692202126
 21
184.730918405
 31
0.000000000
  0
ARC
  8
PLAIN_
  6
SOLID
 62
     7
 10
608.678497473
 20
184.207558842
 30
0.000000000
 40
15.000000000
 50
99.640045593
 51
177.000000000
  0
ARC
  8
PLAIN_
  6
SOLID
 62
     7
 10
608.678497473
 20
184.207558842
 30
0.000000000
 40
10.000000000
 50
99.640045593
 51
177.000000000
  0
ARC
  8
PLAIN_
  6
SOLID
 62
     7
 10
639.909385681
 20
0.341081142
 30
0.000000000
 40
201.500000000
 50
80.359954407
 51
90.000000000
  0
LINE
  8
PLAIN_
  6
SOLID
 62
     7
 10
14.884350923
 20
205.000001907
 30
0.000000000
 11
0.999999046
 21
205.000001907
 31
0.000000000
  0
ARC
  8
PLAIN_
  6
SOLID
 62
     7
 10
639.909385681
 20
0.341081142
 30
0.000000000
 40
205.000000000
 50
135.874103260
 51
162.000000000
  0
LINE
  8
PLAIN_
  6
SOLID
 62
     7
 10
123.667341520
 20
-181.830352658
 30
0.000000000
 11
138.761717409
 21
-180.986754421
 31
0.000000000
  0
ARC
  8
PLAIN_
  6
SOLID
 62
     7
 10
671.140273889
 20
184.207558842
 30
0.000000000
 40
15.000000000
 50
3.000000000
 51
80.359954407
  0
LINE
  8
PLAIN_
  6
SOLID
 62
     7
 10
-0.000000954
 20
-204.000000000
 30
0.000000000
 11
0.999999046
 21
-205.000000000
 31
0.000000000
  0
LINE
  8
PLAIN_
  6
SOLID
 62
     7
 10
14.639346449
 20
-205.000000000
 30
0.000000000
 11
0.999999046
 21
-205.000000000
 31
0.000000000
  0
LINE
  8
PLAIN_
  6
CENTER
 62
     7
 10
433.154792786
 20
0.341081142
 30
0.000000000
 11
852.764930725
 21
0.341081142
 31
0.000000000
  0
LINE
  8
PLAIN_
  6
SOLID
 62
     7
 10
690.573485038
 20
100.009639763
 30
0.000000000
 11
686.119716910
 21
184.992598186
 31
0.000000000
  0
ARC
  8
PLAIN_
  6
SOLID
 62
     7
 10
639.909385681
 20
0.341081142
 30
0.000000000
 40
205.000000000
 50
90.000000000
 51
115.697125806
  0
ARC
  8
PLAIN_
  6
SOLID
 62
     7
 10
705.552928059
 20
100.794679107
 30
0.000000000
 40
15.000000000
 50
183.000000000
 51
236.836536682
  0
ARC
  8
PLAIN_
  6
SOLID
 62
     7
 10
639.909385681
 20
0.341081142
 30
0.000000000
 40
205.000000000
 50
54.000000000
 51
90.000000000
  0
POLYLINE
  8
PLAIN_
  6
SOLID
 62
     7
 66
     1
 10
0.000000000
 20
0.000000000
 30
0.000000000
  0
VERTEX
  8
PLAIN_
 10
492.757990615
 20
143.069729038
 30
0.000000000
  0
VERTEX
  8
PLAIN_
 10
493.753625751
 20
142.244052091
 30
0.000000000
  0
VERTEX
  8
PLAIN_
 10
494.733198544
 20
141.404428443
 30
0.000000000
  0
VERTEX
  8
PLAIN_
 10
496.658457212
 20
139.695757627
 30
0.000000000
  0
VERTEX
  8
PLAIN_
 10
500.473527692
 20
136.247637999
 30
0.000000000
  0
VERTEX
  8
PLAIN_
 10
502.420539965
 20
134.557855523
 30
0.000000000
  0
VERTEX
  8
PLAIN_
 10
503.416427961
 20
133.732398130
 30
0.000000000
  0
VERTEX
  8
PLAIN_
 10
504.432003901
 20
132.924035496
 30
0.000000000
  0
VERTEX
  8
PLAIN_
 10
505.470842814
 20
132.135871765
 30
0.000000000
  0
VERTEX
  8
PLAIN_
 10
506.536519730
 20
131.371011084
 30
0.000000000
  0
VERTEX
  8
PLAIN_
 10
507.632609677
 20
130.632557599
 30
0.000000000
  0
VERTEX
  8
PLAIN_
 10
508.762687683
 20
129.923615456
 30
0.000000000
  0
VERTEX
  8
PLAIN_
 10
510.058358237
 20
129.168664193
 30
0.000000000
  0
VERTEX
  8
PLAIN_
 10
512.667486230
 20
127.684490110
 30
0.000000000
  0
VERTEX
  8
PLAIN_
 10
513.920096273
 20
126.907576547
 30
0.000000000
  0
VERTEX
  8
PLAIN_
 10
514.520102438
 20
126.499980786
 30
0.000000000
  0
VERTEX
  8
PLAIN_
 10
515.097505416
 20
126.075651475
 30
0.000000000
  0
VERTEX
  8
PLAIN_
 10
515.648502244
 20
125.631607945
 30
0.000000000
  0
VERTEX
  8
PLAIN_
 10
516.169289961
 20
125.164869523
 30
0.000000000
  0
VERTEX
  8
PLAIN_
 10
516.656065604
 20
124.672455538
 30
0.000000000
  0
VERTEX
  8
PLAIN_
 10
517.105026211
 20
124.151385319
 30
0.000000000
  0
VERTEX
  8
PLAIN_
 10
517.512368819
 20
123.598678194
 30
0.000000000
  0
VERTEX
  8
PLAIN_
 10
517.874290466
 20
123.011353493
 30
0.000000000
  0
VERTEX
  8
PLAIN_
 10
518.168410531
 20
122.433544874
 30
0.000000000
  0
VERTEX
  8
PLAIN_
 10
518.428644220
 20
121.829289939
 30
0.000000000
  0
VERTEX
  8
PLAIN_
 10
518.663581183
 20
121.204586433
 30
0.000000000
  0
VERTEX
  8
PLAIN_
 10
519.302508204
 20
119.267761970
 30
0.000000000
  0
VERTEX
  8
PLAIN_
 10
519.759452820
 20
117.984261513
 30
0.000000000
  0
VERTEX
  8
PLAIN_
 10
520.113993143
 20
117.155644425
 30
0.000000000
  0
VERTEX
  8
PLAIN_
 10
520.507111620
 20
116.349609158
 30
0.000000000
  0
VERTEX
  8
PLAIN_
 10
520.930586908
 20
115.561026625
 30
0.000000000
  0
VERTEX
  8
PLAIN_
 10
521.376197666
 20
114.784767743
 30
0.000000000
  0
VERTEX
  8
PLAIN_
 10
523.215568542
 20
111.700387001
 30
0.000000000
  0
VERTEX
  8
PLAIN_
 10
525.232507056
 20
107.943810961
 30
0.000000000
  0
VERTEX
  8
PLAIN_
 10
525.762946581
 20
107.026643173
 30
0.000000000
  0
VERTEX
  8
PLAIN_
 10
526.328508539
 20
106.136521945
 30
0.000000000
  0
VERTEX
  8
PLAIN_
 10
526.941513167
 20
105.282575313
 30
0.000000000
  0
VERTEX
  8
PLAIN_
 10
527.269656556
 20
104.872019982
 30
0.000000000
  0
VERTEX
  8
PLAIN_
 10
527.614280701
 20
104.473931313
 30
0.000000000
  0
VERTEX
  8
PLAIN_
 10
527.961695953
 20
104.104438885
 30
0.000000000
  0
VERTEX
  8
PLAIN_
 10
528.324780905
 20
103.747962958
 30
0.000000000
  0
VERTEX
  8
PLAIN_
 10
529.094197435
 20
103.075956183
 30
0.000000000
  0
VERTEX
  8
PLAIN_
 10
529.915005348
 20
102.461702134
 30
0.000000000
  0
VERTEX
  8
PLAIN_
 10
530.779679702
 20
101.908991956
 30
0.000000000
  0
VERTEX
  8
PLAIN_
 10
531.680695553
 20
101.421616796
 30
0.000000000
  0
VERTEX
  8
PLAIN_
 10
532.610527959
 20
101.003367799
 30
0.000000000
  0
VERTEX
  8
PLAIN_
 10
533.561651976
 20
100.658036112
 30
0.000000000
  0
VERTEX
  8
PLAIN_
 10
534.526542664
 20
100.389412880
 30
0.000000000
  0
VERTEX
  8
PLAIN_
 10
535.380053831
 20
100.218508346
 30
0.000000000
  0
VERTEX
  8
PLAIN_
 10
536.238238220
 20
100.104591652
 30
0.000000000
  0
VERTEX
  8
PLAIN_
 10
537.100956129
 20
100.042578344
 30
0.000000000
  0
VERTEX
  8
PLAIN_
 10
537.968067858
 20
100.027383972
 30
0.000000000
  0
VERTEX
  8
PLAIN_
 10
538.839433706
 20
100.053924082
 30
0.000000000
  0
VERTEX
  8
PLAIN_
 10
539.714913974
 20
100.117114222
 30
0.000000000
  0
VERTEX
  8
PLAIN_
 10
540.594368960
 20
100.211869940
 30
0.000000000
  0
VERTEX
  8
PLAIN_
 10
541.477658963
 20
100.333106784
 30
0.000000000
  0
VERTEX
  8
PLAIN_
 10
548.665275574
 20
101.646187782
 30
0.000000000
  0
VERTEX
  8
PLAIN_
 10
549.551602732
 20
101.773484005
 30
0.000000000
  0
VERTEX
  8
PLAIN_
 10
550.437432889
 20
101.876491006
 30
0.000000000
  0
VERTEX
  8
PLAIN_
 10
551.319829082
 20
101.949168222
 30
0.000000000
  0
VERTEX
  8
PLAIN_
 10
552.195854354
 20
101.985475089
 30
0.000000000
  0
VERTEX
  8
PLAIN_
 10
553.062571743
 20
101.979371042
 30
0.000000000
  0
VERTEX
  8
PLAIN_
 10
553.917044290
 20
101.924815518
 30
0.000000000
  0
VERTEX
  8
PLAIN_
 10
554.756335035
 20
101.815767953
 30
0.000000000
  0
VERTEX
  8
PLAIN_
 10
555.577507019
 20
101.646187782
 30
0.000000000
  0
VERTEX
  8
PLAIN_
 10
556.034365222
 20
101.521335998
 30
0.000000000
  0
VERTEX
  8
PLAIN_
 10
556.485522641
 20
101.377164030
 30
0.000000000
  0
VERTEX
  8
PLAIN_
 10
557.375026797
 20
101.039246122
 30
0.000000000
  0
VERTEX
  8
PLAIN_
 10
558.254602826
 20
100.649207214
 30
0.000000000
  0
VERTEX
  8
PLAIN_
 10
560.919595553
 20
99.334096057
 30
0.000000000
  0
VERTEX
  8
PLAIN_
 10
561.845292474
 20
98.903304715
 30
0.000000000
  0
VERTEX
  8
PLAIN_
 10
562.803977966
 20
98.504258156
 30
0.000000000
  0
VERTEX
  8
PLAIN_
 10
563.416446266
 20
98.280280525
 30
0.000000000
  0
VERTEX
  8
PLAIN_
 10
564.041468303
 20
98.076865580
 30
0.000000000
  0
VERTEX
  8
PLAIN_
 10
564.675686703
 20
97.896006391
 30
0.000000000
  0
VERTEX
  8
PLAIN_
 10
565.315744093
 20
97.739696029
 30
0.000000000
  0
VERTEX
  8
PLAIN_
 10
565.958283097
 20
97.609927567
 30
0.000000000
  0
VERTEX
  8
PLAIN_
 10
566.599946343
 20
97.508694074
 30
0.000000000
  0
VERTEX
  8
PLAIN_
 10
567.237376455
 20
97.437988622
 30
0.000000000
  0
VERTEX
  8
PLAIN_
 10
567.867216060
 20
97.399804282
 30
0.000000000
  0
VERTEX
  8
PLAIN_
 10
568.486107783
 20
97.396134127
 30
0.000000000
  0
VERTEX
  8
PLAIN_
 10
569.090694250
 20
97.428971225
 30
0.000000000
  0
VERTEX
  8
PLAIN_
 10
569.677618088
 20
97.500308650
 30
0.000000000
  0
VERTEX
  8
PLAIN_
 10
570.243521922
 20
97.612139472
 30
0.000000000
  0
VERTEX
  8
PLAIN_
 10
570.785048377
 20
97.766456762
 30
0.000000000
  0
VERTEX
  8
PLAIN_
 10
571.298840081
 20
97.965253592
 30
0.000000000
  0
VERTEX
  8
PLAIN_
 10
571.781539657
 20
98.210523033
 30
0.000000000
  0
VERTEX
  8
PLAIN_
 10
572.229789734
 20
98.504258156
 30
0.000000000
  0
VERTEX
  8
PLAIN_
 10
572.604724661
 20
98.813678506
 30
0.000000000
  0
VERTEX
  8
PLAIN_
 10
572.950741616
 20
99.161590661
 30
0.000000000
  0
VERTEX
  8
PLAIN_
 10
573.270057603
 20
99.544932288
 30
0.000000000
  0
VERTEX
  8
PLAIN_
 10
573.564889628
 20
99.960641053
 30
0.000000000
  0
VERTEX
  8
PLAIN_
 10
573.837454694
 20
100.405654623
 30
0.000000000
  0
VERTEX
  8
PLAIN_
 10
574.089969806
 20
100.876910664
 30
0.000000000
  0
VERTEX
  8
PLAIN_
 10
574.324651968
 20
101.371346843
 30
0.000000000
  0
VERTEX
  8
PLAIN_
 10
574.543718185
 20
101.885900827
 30
0.000000000
  0
VERTEX
  8
PLAIN_
 10
574.943870803
 20
102.963112875
 30
0.000000000
  0
VERTEX
  8
PLAIN_
 10
575.308163694
 20
104.084048143
 30
0.000000000
  0
VERTEX
  8
PLAIN_
 10
576.000114441
 20
106.359093666
 30
0.000000000
  0
VERTEX
  8
PLAIN_
 10
576.428609585
 20
107.676633212
 30
0.000000000
  0
VERTEX
  8
PLAIN_
 10
577.745514784
 20
111.459022678
 30
0.000000000
  0
VERTEX
  8
PLAIN_
 10
578.156327022
 20
112.690601614
 30
0.000000000
  0
VERTEX
  8
PLAIN_
 10
578.533746470
 20
113.921334526
 30
0.000000000
  0
VERTEX
  8
PLAIN_
 10
578.866184303
 20
115.159479066
 30
0.000000000
  0
VERTEX
  8
PLAIN_
 10
579.142051697
 20
116.413292885
 30
0.000000000
  0
VERTEX
  8
PLAIN_
 10
579.270383345
 20
117.140756307
 30
0.000000000
  0
VERTEX
  8
PLAIN_
 10
579.376382546
 20
117.875116095
 30
0.000000000
  0
VERTEX
  8
PLAIN_
 10
579.460046086
 20
118.615430061
 30
0.000000000
  0
VERTEX
  8
PLAIN_
 10
579.521370750
 20
119.360756020
 30
0.000000000
  0
VERTEX
  8
PLAIN_
 10
579.560353323
 20
120.110151783
 30
0.000000000
  0
VERTEX
  8
PLAIN_
 10
579.576990590
 20
120.862675164
 30
0.000000000
  0
VERTEX
  8
PLAIN_
 10
579.571279338
 20
121.617383975
 30
0.000000000
  0
VERTEX
  8
PLAIN_
 10
579.543216350
 20
122.373336031
 30
0.000000000
  0
VERTEX
  8
PLAIN_
 10
579.492798414
 20
123.129589144
 30
0.000000000
  0
VERTEX
  8
PLAIN_
 10
579.420022313
 20
123.885201127
 30
0.000000000
  0
VERTEX
  8
PLAIN_
 10
579.324884834
 20
124.639229793
 30
0.000000000
  0
VERTEX
  8
PLAIN_
 10
579.207382761
 20
125.390732956
 30
0.000000000
  0
VERTEX
  8
PLAIN_
 10
579.067512881
 20
126.138768427
 30
0.000000000
  0
VERTEX
  8
PLAIN_
 10
578.905271978
 20
126.882394021
 30
0.000000000
  0
VERTEX
  8
PLAIN_
 10
578.720656838
 20
127.620667550
 30
0.000000000
  0
VERTEX
  8
PLAIN_
 10
578.513664246
 20
128.352646828
 30
0.000000000
  0
VERTEX
  8
PLAIN_
 10
578.101044822
 20
129.607113185
 30
0.000000000
  0
VERTEX
  8
PLAIN_
 10
577.622817523
 20
130.836009225
 30
0.000000000
  0
VERTEX
  8
PLAIN_
 10
577.080962283
 20
132.035618092
 30
0.000000000
  0
VERTEX
  8
PLAIN_
 10
576.477459035
 20
133.202222930
 30
0.000000000
  0
VERTEX
  8
PLAIN_
 10
575.814287713
 20
134.332106883
 30
0.000000000
  0
VERTEX
  8
PLAIN_
 10
575.093428250
 20
135.421553094
 30
0.000000000
  0
VERTEX
  8
PLAIN_
 10
574.316860580
 20
136.466844708
 30
0.000000000
  0
VERTEX
  8
PLAIN_
 10
573.486564636
 20
137.464264870
 30
0.000000000
  0
VERTEX
  8
PLAIN_
 10
572.959065118
 20
138.043567130
 30
0.000000000
  0
VERTEX
  8
PLAIN_
 10
572.414507820
 20
138.606154310
 30
0.000000000
  0
VERTEX
  8
PLAIN_
 10
571.281799274
 20
139.689899176
 30
0.000000000
  0
VERTEX
  8
PLAIN_
 10
570.103597769
 20
140.732930953
 30
0.000000000
  0
VERTEX
  8
PLAIN_
 10
566.447623218
 20
143.792062593
 30
0.000000000
  0
VERTEX
  8
PLAIN_
 10
565.239037594
 20
144.846556860
 30
0.000000000
  0
VERTEX
  8
PLAIN_
 10
564.060752869
 20
145.947495461
 30
0.000000000
  0
VERTEX
  8
PLAIN_
 10
563.402901530
 20
146.608956618
 30
0.000000000
  0
VERTEX
  8
PLAIN_
 10
562.769127255
 20
147.292610213
 30
0.000000000
  0
VERTEX
  8
PLAIN_
 10
562.168432174
 20
147.999466746
 30
0.000000000
  0
VERTEX
  8
PLAIN_
 10
561.609818415
 20
148.730536717
 30
0.000000000
  0
VERTEX
  8
PLAIN_
 10
561.102288107
 20
149.486830626
 30
0.000000000
  0
VERTEX
  8
PLAIN_
 10
560.654843378
 20
150.269358974
 30
0.000000000
  0
VERTEX
  8
PLAIN_
 10
560.276486359
 20
151.079132261
 30
0.000000000
  0
VERTEX
  8
PLAIN_
 10
560.116028905
 20
151.494551538
 30
0.000000000
  0
VERTEX
  8
PLAIN_
 10
559.976219177
 20
151.917160988
 30
0.000000000
  0
VERTEX
  8
PLAIN_
 10
559.800507423
 20
152.590613888
 30
0.000000000
  0
VERTEX
  8
PLAIN_
 10
559.673120958
 20
153.279128112
 30
0.000000000
  0
VERTEX
  8
PLAIN_
 10
559.589388487
 20
153.979956280
 30
0.000000000
  0
VERTEX
  8
PLAIN_
 10
559.544638715
 20
154.690351015
 30
0.000000000
  0
VERTEX
  8
PLAIN_
 10
559.534200346
 20
155.407564937
 30
0.000000000
  0
VERTEX
  8
PLAIN_
 10
559.553402086
 20
156.128850670
 30
0.000000000
  0
VERTEX
  8
PLAIN_
 10
559.597572639
 20
156.851460833
 30
0.000000000
  0
VERTEX
  8
PLAIN_
 10
559.662040710
 20
157.572648048
 30
0.000000000
  0
VERTEX
  8
PLAIN_
 10
559.842176904
 20
159.080247050
 30
0.000000000
  0
VERTEX
  8
PLAIN_
 10
560.040842534
 20
160.574369900
 30
0.000000000
  0
VERTEX
  8
PLAIN_
 10
560.207204115
 20
162.060052020
 30
0.000000000
  0
VERTEX
  8
PLAIN_
 10
560.262385423
 20
162.801301377
 30
0.000000000
  0
VERTEX
  8
PLAIN_
 10
560.290428162
 20
163.542328835
 30
0.000000000
  0
VERTEX
  8
PLAIN_
 10
560.270111173
 20
164.697530613
 30
0.000000000
  0
VERTEX
  8
PLAIN_
 10
560.175054931
 20
165.851844693
 30
0.000000000
  0
VERTEX
  8
PLAIN_
 10
560.011867875
 20
167.003393563
 30
0.000000000
  0
VERTEX
  8
PLAIN_
 10
559.787158445
 20
168.150299712
 30
0.000000000
  0
VERTEX
  8
PLAIN_
 10
559.507535084
 20
169.290685629
 30
0.000000000
  0
VERTEX
  8
PLAIN_
 10
559.179606230
 20
170.422673803
 30
0.000000000
  0
VERTEX
  8
PLAIN_
 10
558.809980324
 20
171.544386722
 30
0.000000000
  0
VERTEX
  8
PLAIN_
 10
558.405265808
 20
172.653946877
 30
0.000000000
  0
VERTEX
  8
PLAIN_
 10
557.829536188
 20
174.088873091
 30
0.000000000
  0
VERTEX
  8
PLAIN_
 10
557.204874008
 20
175.498206113
 30
0.000000000
  0
VERTEX
  8
PLAIN_
 10
556.531390923
 20
176.880513557
 30
0.000000000
  0
VERTEX
  8
PLAIN_
 10
555.809198585
 20
178.234363034
 30
0.000000000
  0
VERTEX
  8
PLAIN_
 10
555.038408647
 20
179.558322158
 30
0.000000000
  0
VERTEX
  8
PLAIN_
 10
554.219132762
 20
180.850958543
 30
0.000000000
  0
VERTEX
  8
PLAIN_
 10
553.351482583
 20
182.110839802
 30
0.000000000
  0
VERTEX
  8
PLAIN_
 10
552.435569763
 20
183.336533546
 30
0.000000000
  0
VERTEX
  8
PLAIN_
 10
551.737572524
 20
184.209212253
 30
0.000000000
  0
VERTEX
  8
PLAIN_
 10
551.018539814
 20
185.066329880
 30
0.000000000
  0
SEQEND
  0
LINE
  8
PLAIN_
  6
SOLID
 62
     7
 10
18.057348211
 20
-201.581967720
 30
0.000000000
 11
18.057348211
 21
201.823843476
 31
0.000000000
  0
LINE
  8
PLAIN_
  6
SOLID
 62
     7
 10
-18.544911805
 20
-201.499968529
 30
0.000000000
 11
-18.544911805
 21
201.476410954
 31
0.000000000
  0
LINE
  8
PLAIN_
  6
CENTER
 62
     7
 10
101.414586782
 20
-155.000000000
 30
0.000000000
 11
163.364437103
 21
-155.000000000
 31
0.000000000
  0
ARC
  8
PLAIN_
  6
CENTER
 62
     7
 10
639.909385681
 20
0.341081142
 30
0.000000000
 40
155.000000000
 50
334.116813766
 51
349.779303894
  0
ARC
  8
PLAIN_
  6
CENTER
 62
     7
 10
639.909385681
 20
0.341081142
 30
0.000000000
 40
155.000000000
 50
262.116813766
 51
277.779303894
  0
ENDSEC
  0
EOF
