  0
SECTION
  2
HEADER
  9
$ACADVER
  1
AC1014
  9
$ACADMAINTVER
 70
     9
  9
$DWGCODEPAGE
  3
ANSI_1252
  9
$INSBASE
 10
0.0
 20
0.0
 30
0.0
  9
$EXTMIN
 10
-542.9342412795429
 20
216.938278198
 30
0.0
  9
$EXTMAX
 10
129.7473373409999
 20
547.8134155270002
 30
0.0
  9
$LIMMIN
 10
0.0
 20
0.0
  9
$LIMMAX
 10
12.0
 20
9.0
  9
$ORTHOMODE
 70
     0
  9
$REGENMODE
 70
     1
  9
$FILLMODE
 70
     1
  9
$QTEXTMODE
 70
     0
  9
$MIRRTEXT
 70
     1
  9
$DRAGMODE
 70
     2
  9
$LTSCALE
 40
1.0
  9
$OSMODE
 70
    37
  9
$ATTMODE
 70
     1
  9
$TEXTSIZE
 40
0.0
  9
$TRACEWID
 40
0.05
  9
$TEXTSTYLE
  7
STANDARD
  9
$CLAYER
  8
0
  9
$CELTYPE
  6
CONTINUOUS
  9
$CECOLOR
 62
   256
  9
$CELTSCALE
 40
1.0
  9
$DELOBJ
 70
     1
  9
$DISPSILH
 70
     0
  9
$DIMSCALE
 40
1.0
  9
$DIMASZ
 40
0.18
  9
$DIMEXO
 40
0.0625
  9
$DIMDLI
 40
0.38
  9
$DIMRND
 40
0.0
  9
$DIMDLE
 40
0.0
  9
$DIMEXE
 40
0.18
  9
$DIMTP
 40
0.0
  9
$DIMTM
 40
0.0
  9
$DIMTXT
 40
0.18
  9
$DIMCEN
 40
0.09
  9
$DIMTSZ
 40
0.0
  9
$DIMTOL
 70
     0
  9
$DIMLIM
 70
     0
  9
$DIMTIH
 70
     1
  9
$DIMTOH
 70
     1
  9
$DIMSE1
 70
     0
  9
$DIMSE2
 70
     0
  9
$DIMTAD
 70
     0
  9
$DIMZIN
 70
     0
  9
$DIMBLK
  1

  9
$DIMASO
 70
     1
  9
$DIMSHO
 70
     1
  9
$DIMPOST
  1

  9
$DIMAPOST
  1

  9
$DIMALT
 70
     0
  9
$DIMALTD
 70
     2
  9
$DIMALTF
 40
25.4
  9
$DIMLFAC
 40
1.0
  9
$DIMTOFL
 70
     0
  9
$DIMTVP
 40
0.0
  9
$DIMTIX
 70
     0
  9
$DIMSOXD
 70
     0
  9
$DIMSAH
 70
     0
  9
$DIMBLK1
  1

  9
$DIMBLK2
  1

  9
$DIMSTYLE
  2
STANDARD
  9
$DIMCLRD
 70
     0
  9
$DIMCLRE
 70
     0
  9
$DIMCLRT
 70
     0
  9
$DIMTFAC
 40
1.0
  9
$DIMGAP
 40
0.09
  9
$DIMJUST
 70
     0
  9
$DIMSD1
 70
     0
  9
$DIMSD2
 70
     0
  9
$DIMTOLJ
 70
     1
  9
$DIMTZIN
 70
     0
  9
$DIMALTZ
 70
     0
  9
$DIMALTTZ
 70
     0
  9
$DIMFIT
 70
     3
  9
$DIMUPT
 70
     0
  9
$DIMUNIT
 70
     2
  9
$DIMDEC
 70
     4
  9
$DIMTDEC
 70
     4
  9
$DIMALTU
 70
     2
  9
$DIMALTTD
 70
     2
  9
$DIMTXSTY
  7
STANDARD
  9
$DIMAUNIT
 70
     0
  9
$LUNITS
 70
     2
  9
$LUPREC
 70
     4
  9
$SKETCHINC
 40
0.1
  9
$FILLETRAD
 40
0.0
  9
$AUNITS
 70
     0
  9
$AUPREC
 70
     0
  9
$MENU
  1
.
  9
$ELEVATION
 40
0.0
  9
$PELEVATION
 40
0.0
  9
$THICKNESS
 40
0.0
  9
$LIMCHECK
 70
     0
  9
$BLIPMODE
 70
     0
  9
$CHAMFERA
 40
0.0
  9
$CHAMFERB
 40
0.0
  9
$CHAMFERC
 40
0.0
  9
$CHAMFERD
 40
0.0
  9
$SKPOLY
 70
     0
  9
$TDCREATE
 40
2451866.361341667
  9
$TDUPDATE
 40
2451866.375383912
  9
$TDINDWG
 40
0.0140453704
  9
$TDUSRTIMER
 40
0.0140453704
  9
$USRTIMER
 70
     1
  9
$ANGBASE
 50
0.0
  9
$ANGDIR
 70
     0
  9
$PDMODE
 70
     0
  9
$PDSIZE
 40
0.0
  9
$PLINEWID
 40
0.0
  9
$COORDS
 70
     1
  9
$SPLFRAME
 70
     0
  9
$SPLINETYPE
 70
     6
  9
$SPLINESEGS
 70
     8
  9
$ATTDIA
 70
     0
  9
$ATTREQ
 70
     1
  9
$HANDLING
 70
 10241
  9
$HANDSEED
  5
794
  9
$SURFTAB1
 70
     6
  9
$SURFTAB2
 70
     6
  9
$SURFTYPE
 70
     6
  9
$SURFU
 70
     6
  9
$SURFV
 70
     6
  9
$UCSNAME
  2

  9
$UCSORG
 10
0.0
 20
0.0
 30
0.0
  9
$UCSXDIR
 10
1.0
 20
0.0
 30
0.0
  9
$UCSYDIR
 10
0.0
 20
1.0
 30
0.0
  9
$PUCSNAME
  2

  9
$PUCSORG
 10
0.0
 20
0.0
 30
0.0
  9
$PUCSXDIR
 10
1.0
 20
0.0
 30
0.0
  9
$PUCSYDIR
 10
0.0
 20
1.0
 30
0.0
  9
$USERI1
 70
     0
  9
$USERI2
 70
     0
  9
$USERI3
 70
     0
  9
$USERI4
 70
     0
  9
$USERI5
 70
     0
  9
$USERR1
 40
0.0
  9
$USERR2
 40
0.0
  9
$USERR3
 40
0.0
  9
$USERR4
 40
0.0
  9
$USERR5
 40
0.0
  9
$WORLDVIEW
 70
     1
  9
$SHADEDGE
 70
     3
  9
$SHADEDIF
 70
    70
  9
$TILEMODE
 70
     1
  9
$MAXACTVP
 70
    64
  9
$PINSBASE
 10
0.0
 20
0.0
 30
0.0
  9
$PLIMCHECK
 70
     0
  9
$PEXTMIN
 10
1.000000000000000E+20
 20
1.000000000000000E+20
 30
1.000000000000000E+20
  9
$PEXTMAX
 10
-1.000000000000000E+20
 20
-1.000000000000000E+20
 30
-1.000000000000000E+20
  9
$PLIMMIN
 10
0.0
 20
0.0
  9
$PLIMMAX
 10
12.0
 20
9.0
  9
$UNITMODE
 70
     0
  9
$VISRETAIN
 70
     1
  9
$PLINEGEN
 70
     0
  9
$PSLTSCALE
 70
     1
  9
$TREEDEPTH
 70
  3020
  9
$PICKSTYLE
 70
     1
  9
$CMLSTYLE
  2
STANDARD
  9
$CMLJUST
 70
     0
  9
$CMLSCALE
 40
1.0
  9
$PROXYGRAPHICS
 70
     1
  9
$MEASUREMENT
 70
     0
  0
ENDSEC
  0
SECTION
  2
CLASSES
  0
CLASS
  1
ACDBDICTIONARYWDFLT
  2
AcDbDictionaryWithDefault
  3
AutoCAD 2000
 90
        0
280
     0
281
     0
  0
CLASS
  1
ACDBPLACEHOLDER
  2
AcDbPlaceHolder
  3
AutoCAD 2000
 90
        0
280
     0
281
     0
  0
CLASS
  1
LAYOUT
  2
AcDbLayout
  3
AutoCAD 2000
 90
        0
280
     0
281
     0
  0
CLASS
  1
LONG_TRANSACTION
  2
AcDbLongTransaction
  3
AutoCAD 2000
 90
        0
280
     0
281
     0
  0
CLASS
  1
LWPOLYLINE
  2
AcDbPolyline
  3
AutoCAD 2000
 90
        0
280
     0
281
     1
  0
CLASS
  1
HATCH
  2
AcDbHatch
  3
AutoCAD 2000
 90
        0
280
     0
281
     1
  0
CLASS
  1
XRECORD
  2
AcDbXrecord
  3
AutoCAD 2000
 90
        0
280
     0
281
     0
  0
ENDSEC
  0
SECTION
  2
TABLES
  0
TABLE
  2
VPORT
  5
8
330
0
100
AcDbSymbolTable
 70
     3
  0
VPORT
  5
76F
330
8
100
AcDbSymbolTableRecord
100
AcDbViewportTableRecord
  2
*ACTIVE
 70
     0
 10
0.0
 20
0.0
 11
1.0
 21
1.0
 12
-206.5934519692715
 22
273.9067077635001
 13
0.0
 23
0.0
 14
1.0
 24
1.0
 15
0.0
 25
0.0
 16
0.0
 26
0.0
 36
1.0
 17
0.0
 27
0.0
 37
0.0
 40
555.8694951671031
 41
1.781326781326781
 42
50.0
 43
0.0
 44
0.0
 50
0.0
 51
0.0
 71
     0
 72
   100
 73
     1
 74
     1
 75
     0
 76
     0
 77
     0
 78
     0
  0
ENDTAB
  0
TABLE
  2
LTYPE
  5
5
330
0
100
AcDbSymbolTable
 70
     9
  0
LTYPE
  5
13
330
5
100
AcDbSymbolTableRecord
100
AcDbLinetypeTableRecord
  2
BYBLOCK
 70
     0
  3

 72
    65
 73
     0
 40
0.0
  0
LTYPE
  5
14
330
5
100
AcDbSymbolTableRecord
100
AcDbLinetypeTableRecord
  2
BYLAYER
 70
     0
  3

 72
    65
 73
     0
 40
0.0
  0
LTYPE
  5
15
330
5
100
AcDbSymbolTableRecord
100
AcDbLinetypeTableRecord
  2
CONTINUOUS
 70
     0
  3
Solid line
 72
    65
 73
     0
 40
0.0
  0
LTYPE
  5
22
330
5
100
AcDbSymbolTableRecord
100
AcDbLinetypeTableRecord
  2
SOLID
 70
     0
  3

 72
    65
 73
     0
 40
0.0
  0
LTYPE
  5
23
330
5
100
AcDbSymbolTableRecord
100
AcDbLinetypeTableRecord
  2
DASH
 70
     0
  3

 72
    65
 73
     2
 40
4.5
 49
2.5
 74
     0
 49
-2.0
 74
     0
  0
LTYPE
  5
24
330
5
100
AcDbSymbolTableRecord
100
AcDbLinetypeTableRecord
  2
CENTER
 70
     0
  3

 72
    65
 73
     4
 40
8.0
 49
4.5
 74
     0
 49
-1.5
 74
     0
 49
0.5
 74
     0
 49
-1.5
 74
     0
  0
LTYPE
  5
25
330
5
100
AcDbSymbolTableRecord
100
AcDbLinetypeTableRecord
  2
L_DASH
 70
     0
  3

 72
    65
 73
     2
 40
4.5
 49
2.5
 74
     0
 49
-2.0
 74
     0
  0
LTYPE
  5
26
330
5
100
AcDbSymbolTableRecord
100
AcDbLinetypeTableRecord
  2
FONT_5
 70
     0
  3

 72
    65
 73
     8
 40
9.0
 49
0.5
 74
     0
 49
-2.5
 74
     0
 49
0.5
 74
     0
 49
-1.5
 74
     0
 49
0.5
 74
     0
 49
-1.5
 74
     0
 49
0.5
 74
     0
 49
-1.5
 74
     0
  0
LTYPE
  5
27
330
5
100
AcDbSymbolTableRecord
100
AcDbLinetypeTableRecord
  2
FONT_6
 70
     0
  3

 72
    65
 73
    11
 40
8.0
 49
0.5
 74
     0
 49
-1.0
 74
     0
 49
0.5
 74
     0
 49
-1.0
 74
     0
 49
0.5
 74
     0
 49
-1.0
 74
     0
 49
0.5
 74
     0
 49
-1.0
 74
     0
 49
0.5
 74
     0
 49
-1.0
 74
     0
 49
0.5
 74
     0
  0
LTYPE
  5
28
330
5
100
AcDbSymbolTableRecord
100
AcDbLinetypeTableRecord
  2
FONT_7
 70
     0
  3

 72
    65
 73
     4
 40
8.0
 49
1.0
 74
     0
 49
-5.0
 74
     0
 49
1.0
 74
     0
 49
-1.0
 74
     0
  0
LTYPE
  5
29
330
5
100
AcDbSymbolTableRecord
100
AcDbLinetypeTableRecord
  2
FONT_8
 70
     0
  3

 72
    65
 73
     4
 40
8.0
 49
1.0
 74
     0
 49
-5.0
 74
     0
 49
1.0
 74
     0
 49
-1.0
 74
     0
  0
ENDTAB
  0
TABLE
  2
LAYER
  5
2
330
0
100
AcDbSymbolTable
 70
     2
  0
LAYER
  5
10
330
2
100
AcDbSymbolTableRecord
100
AcDbLayerTableRecord
  2
0
 70
     0
 62
     7
  6
CONTINUOUS
  0
LAYER
  5
2A
330
2
100
AcDbSymbolTableRecord
100
AcDbLayerTableRecord
  2
PLAIN_
 70
     0
 62
     7
  6
SOLID
  0
ENDTAB
  0
TABLE
  2
STYLE
  5
3
330
0
100
AcDbSymbolTable
 70
     1
  0
STYLE
  5
11
330
3
100
AcDbSymbolTableRecord
100
AcDbTextStyleTableRecord
  2
STANDARD
 70
     0
 40
0.0
 41
1.0
 50
0.0
 71
     0
 42
0.0
  3
txt.shx
  4

  0
ENDTAB
  0
TABLE
  2
VIEW
  5
6
330
0
100
AcDbSymbolTable
 70
     0
  0
ENDTAB
  0
TABLE
  2
UCS
  5
7
330
0
100
AcDbSymbolTable
 70
     0
  0
ENDTAB
  0
TABLE
  2
APPID
  5
9
330
0
100
AcDbSymbolTable
 70
     1
  0
APPID
  5
12
330
9
100
AcDbSymbolTableRecord
100
AcDbRegAppTableRecord
  2
ACAD
 70
     0
  0
ENDTAB
  0
TABLE
  2
DIMSTYLE
  5
A
330
0
100
AcDbSymbolTable
 70
     1
  0
DIMSTYLE
105
76C
330
A
100
AcDbSymbolTableRecord
100
AcDbDimStyleTableRecord
  2
STANDARD
 70
     0
  3

  4

  5

  6

  7

 40
1.0
 41
0.18
 42
0.0625
 43
0.38
 44
0.18
 45
0.0
 46
0.0
 47
0.0
 48
0.0
140
0.18
141
0.09
142
0.0
143
25.4
144
1.0
145
0.0
146
1.0
147
0.09
 71
     0
 72
     0
 73
     1
 74
     1
 75
     0
 76
     0
 77
     0
 78
     0
170
     0
171
     2
172
     0
173
     0
174
     0
175
     0
176
     0
177
     0
178
     0
270
     2
271
     4
272
     4
273
     2
274
     2
340
11
275
     0
280
     0
281
     0
282
     0
283
     1
284
     0
285
     0
286
     0
287
     3
288
     0
  0
ENDTAB
  0
TABLE
  2
BLOCK_RECORD
  5
1
330
0
100
AcDbSymbolTable
 70
    43
  0
BLOCK_RECORD
  5
1E
102
{ACAD_XDICTIONARY
360
792
102
}
330
1
100
AcDbSymbolTableRecord
100
AcDbBlockTableRecord
  2
*MODEL_SPACE
  0
BLOCK_RECORD
  5
1A
102
{ACAD_XDICTIONARY
360
790
102
}
330
1
100
AcDbSymbolTableRecord
100
AcDbBlockTableRecord
  2
*PAPER_SPACE
  0
BLOCK_RECORD
  5
2D
330
1
100
AcDbSymbolTableRecord
100
AcDbBlockTableRecord
  2
*U0
  0
BLOCK_RECORD
  5
3B
330
1
100
AcDbSymbolTableRecord
100
AcDbBlockTableRecord
  2
*D1
  0
BLOCK_RECORD
  5
48
330
1
100
AcDbSymbolTableRecord
100
AcDbBlockTableRecord
  2
*U2
  0
BLOCK_RECORD
  5
5A
330
1
100
AcDbSymbolTableRecord
100
AcDbBlockTableRecord
  2
*D3
  0
BLOCK_RECORD
  5
68
330
1
100
AcDbSymbolTableRecord
100
AcDbBlockTableRecord
  2
*D4
  0
BLOCK_RECORD
  5
76
330
1
100
AcDbSymbolTableRecord
100
AcDbBlockTableRecord
  2
*U5
  0
BLOCK_RECORD
  5
7E
330
1
100
AcDbSymbolTableRecord
100
AcDbBlockTableRecord
  2
*D6
  0
BLOCK_RECORD
  5
8A
330
1
100
AcDbSymbolTableRecord
100
AcDbBlockTableRecord
  2
*D7
  0
BLOCK_RECORD
  5
96
330
1
100
AcDbSymbolTableRecord
100
AcDbBlockTableRecord
  2
*D8
  0
BLOCK_RECORD
  5
A4
330
1
100
AcDbSymbolTableRecord
100
AcDbBlockTableRecord
  2
*D9
  0
BLOCK_RECORD
  5
AD
330
1
100
AcDbSymbolTableRecord
100
AcDbBlockTableRecord
  2
*U10
  0
BLOCK_RECORD
  5
B8
330
1
100
AcDbSymbolTableRecord
100
AcDbBlockTableRecord
  2
*U11
  0
BLOCK_RECORD
  5
C3
330
1
100
AcDbSymbolTableRecord
100
AcDbBlockTableRecord
  2
*D12
  0
BLOCK_RECORD
  5
D1
330
1
100
AcDbSymbolTableRecord
100
AcDbBlockTableRecord
  2
*D13
  0
BLOCK_RECORD
  5
E1
330
1
100
AcDbSymbolTableRecord
100
AcDbBlockTableRecord
  2
*D14
  0
BLOCK_RECORD
  5
EF
330
1
100
AcDbSymbolTableRecord
100
AcDbBlockTableRecord
  2
*D15
  0
BLOCK_RECORD
  5
FD
330
1
100
AcDbSymbolTableRecord
100
AcDbBlockTableRecord
  2
*D16
  0
BLOCK_RECORD
  5
10D
330
1
100
AcDbSymbolTableRecord
100
AcDbBlockTableRecord
  2
*D17
  0
BLOCK_RECORD
  5
11D
330
1
100
AcDbSymbolTableRecord
100
AcDbBlockTableRecord
  2
*D18
  0
BLOCK_RECORD
  5
12B
330
1
100
AcDbSymbolTableRecord
100
AcDbBlockTableRecord
  2
*D19
  0
BLOCK_RECORD
  5
139
330
1
100
AcDbSymbolTableRecord
100
AcDbBlockTableRecord
  2
*D20
  0
BLOCK_RECORD
  5
149
330
1
100
AcDbSymbolTableRecord
100
AcDbBlockTableRecord
  2
*D21
  0
BLOCK_RECORD
  5
159
330
1
100
AcDbSymbolTableRecord
100
AcDbBlockTableRecord
  2
*D22
  0
BLOCK_RECORD
  5
168
330
1
100
AcDbSymbolTableRecord
100
AcDbBlockTableRecord
  2
*D23
  0
BLOCK_RECORD
  5
174
330
1
100
AcDbSymbolTableRecord
100
AcDbBlockTableRecord
  2
*D24
  0
BLOCK_RECORD
  5
182
330
1
100
AcDbSymbolTableRecord
100
AcDbBlockTableRecord
  2
*D25
  0
BLOCK_RECORD
  5
190
330
1
100
AcDbSymbolTableRecord
100
AcDbBlockTableRecord
  2
*D26
  0
BLOCK_RECORD
  5
1A0
330
1
100
AcDbSymbolTableRecord
100
AcDbBlockTableRecord
  2
*D27
  0
BLOCK_RECORD
  5
1AD
330
1
100
AcDbSymbolTableRecord
100
AcDbBlockTableRecord
  2
*U28
  0
BLOCK_RECORD
  5
1BB
330
1
100
AcDbSymbolTableRecord
100
AcDbBlockTableRecord
  2
*D29
  0
BLOCK_RECORD
  5
1CC
330
1
100
AcDbSymbolTableRecord
100
AcDbBlockTableRecord
  2
*D30
  0
BLOCK_RECORD
  5
1D8
330
1
100
AcDbSymbolTableRecord
100
AcDbBlockTableRecord
  2
*U31
  0
BLOCK_RECORD
  5
1E5
330
1
100
AcDbSymbolTableRecord
100
AcDbBlockTableRecord
  2
*D32
  0
BLOCK_RECORD
  5
1F2
330
1
100
AcDbSymbolTableRecord
100
AcDbBlockTableRecord
  2
*U33
  0
BLOCK_RECORD
  5
1FC
330
1
100
AcDbSymbolTableRecord
100
AcDbBlockTableRecord
  2
*D34
  0
BLOCK_RECORD
  5
20A
330
1
100
AcDbSymbolTableRecord
100
AcDbBlockTableRecord
  2
*D35
  0
BLOCK_RECORD
  5
21A
330
1
100
AcDbSymbolTableRecord
100
AcDbBlockTableRecord
  2
*U36
  0
BLOCK_RECORD
  5
224
330
1
100
AcDbSymbolTableRecord
100
AcDbBlockTableRecord
  2
*U37
  0
BLOCK_RECORD
  5
22E
330
1
100
AcDbSymbolTableRecord
100
AcDbBlockTableRecord
  2
*U38
  0
BLOCK_RECORD
  5
248
330
1
100
AcDbSymbolTableRecord
100
AcDbBlockTableRecord
  2
*U39
  0
BLOCK_RECORD
  5
250
330
1
100
AcDbSymbolTableRecord
100
AcDbBlockTableRecord
  2
*U40
  0
BLOCK_RECORD
  5
258
330
1
100
AcDbSymbolTableRecord
100
AcDbBlockTableRecord
  2
*D41
  0
BLOCK_RECORD
  5
268
330
1
100
AcDbSymbolTableRecord
100
AcDbBlockTableRecord
  2
*U42
  0
ENDTAB
  0
ENDSEC
  0
SECTION
  2
BLOCKS
  0
BLOCK
  5
1F
330
1E
100
AcDbEntity
  8
0
100
AcDbBlockBegin
  2
*MODEL_SPACE
 70
     0
 10
0.0
 20
0.0
 30
0.0
  3
*MODEL_SPACE
  1

  0
ENDBLK
  5
20
330
1E
100
AcDbEntity
  8
0
100
AcDbBlockEnd
  0
BLOCK
  5
1B
330
1A
100
AcDbEntity
 67
     1
  8
0
100
AcDbBlockBegin
  2
*PAPER_SPACE
 70
     0
 10
0.0
 20
0.0
 30
0.0
  3
*PAPER_SPACE
  1

  0
ENDBLK
  5
1C
330
1A
100
AcDbEntity
 67
     1
  8
0
100
AcDbBlockEnd
  0
BLOCK
  5
2E
330
2D
100
AcDbEntity
  8
PLAIN_
100
AcDbBlockBegin
  2
*U0
 70
     1
 10
0.0
 20
0.0
 30
0.0
  3
*U0
  1

  0
LINE
  5
2F
330
2D
100
AcDbEntity
  8
PLAIN_
  6
SOLID
 62
     5
100
AcDbLine
 10
-356.4982910159999
 20
304.4657897949999
 30
0.0
 11
-354.376953125
 21
306.5871276859999
 31
0.0
  0
LINE
  5
30
330
2D
100
AcDbEntity
  8
PLAIN_
  6
SOLID
 62
     5
100
AcDbLine
 10
-354.376953125
 20
310.8297424319999
 30
0.0
 11
-360.7409057619999
 21
304.4657897949999
 31
0.0
  0
LINE
  5
31
330
2D
100
AcDbEntity
  8
PLAIN_
  6
SOLID
 62
     5
100
AcDbLine
 10
-363.6917724609999
 20
305.757598877
 30
0.0
 11
-354.376953125
 21
315.0723876949999
 31
0.0
  0
LINE
  5
32
330
2D
100
AcDbEntity
  8
PLAIN_
  6
SOLID
 62
     5
100
AcDbLine
 10
-353.767303467
 20
319.924682617
 30
0.0
 11
-363.41015625
 21
310.281829834
 31
0.0
  0
LINE
  5
33
330
2D
100
AcDbEntity
  8
PLAIN_
  6
SOLID
 62
     5
100
AcDbLine
 10
-363.071472168
 20
314.863189697
 30
0.0
 11
-360.4255981449999
 21
317.5090332029999
 31
0.0
  0
LINE
  5
34
330
2D
100
AcDbEntity
  8
PLAIN_
  6
SOLID
 62
     5
100
AcDbLine
 10
-358.5575256349999
 20
319.37713623
 30
0.0
 11
-352.518066406
 21
325.4165649409999
 31
0.0
  0
LINE
  5
35
330
2D
100
AcDbEntity
  8
PLAIN_
  6
SOLID
 62
     5
100
AcDbLine
 10
-352.518066406
 20
329.659210205
 30
0.0
 11
-357.835357666
 21
324.3419189449999
 31
0.0
  0
LINE
  5
36
330
2D
100
AcDbEntity
  8
PLAIN_
  6
SOLID
 62
     5
100
AcDbLine
 10
-357.862121582
 20
328.557800293
 30
0.0
 11
-352.518066406
 21
333.9018554689999
 31
0.0
  0
LINE
  5
37
330
2D
100
AcDbEntity
  8
PLAIN_
  6
SOLID
 62
     5
100
AcDbLine
 10
-352.518066406
 20
338.1445007319999
 30
0.0
 11
-358.016021729
 21
332.646514893
 31
0.0
  0
LINE
  5
38
330
2D
100
AcDbEntity
  8
PLAIN_
  6
SOLID
 62
     5
100
AcDbLine
 10
-355.248046875
 20
339.657165527
 30
0.0
 11
-351.0180664059999
 21
343.8871459959999
 31
0.0
  0
LINE
  5
39
330
2D
100
AcDbEntity
  8
PLAIN_
  6
SOLID
 62
     5
100
AcDbLine
 10
-351.0180664059999
 20
348.12979126
 30
0.0
 11
-353.5878601069999
 21
345.5599670409999
 31
0.0
  0
ENDBLK
  5
3A
330
2D
100
AcDbEntity
  8
0
100
AcDbBlockEnd
  0
BLOCK
  5
3C
330
3B
100
AcDbEntity
  8
PLAIN_
100
AcDbBlockBegin
  2
*D1
 70
     1
 10
0.0
 20
0.0
 30
0.0
  3
*D1
  1

  0
LINE
  5
3D
330
3B
100
AcDbEntity
  8
PLAIN_
  6
SOLID
 62
     3
100
AcDbLine
 10
31.377428055
 20
484.241394043
 30
0.0
 11
35.344249725
 21
495.761871338
 31
0.0
  0
LINE
  5
3E
330
3B
100
AcDbEntity
  8
PLAIN_
  6
SOLID
 62
     3
100
AcDbLine
 10
29.292461395
 20
496.544036865
 30
0.0
 11
35.311691284
 21
495.667327881
 31
0.0
  0
LINE
  5
3F
330
3B
100
AcDbEntity
  8
PLAIN_
  6
SOLID
 62
     3
100
AcDbLine
 10
35.311691284
 20
495.667327881
 30
0.0
 11
29.90206909199999
 21
498.4486389159999
 31
0.0
  0
LINE
  5
40
330
3B
100
AcDbEntity
  8
PLAIN_
  6
SOLID
 62
     3
100
AcDbLine
 10
29.90206909199999
 20
498.4486389159999
 30
0.0
 11
29.292461395
 21
496.544036865
 31
0.0
  0
LINE
  5
41
330
3B
100
AcDbEntity
  8
PLAIN_
  6
SOLID
 62
     3
100
AcDbLine
 10
-3.382241488
 20
504.018554688
 30
0.0
 11
-9.402654648
 21
503.149963379
 31
0.0
  0
LINE
  5
42
330
3B
100
AcDbEntity
  8
PLAIN_
  6
SOLID
 62
     3
100
AcDbLine
 10
-9.402654648
 20
503.149963379
 30
0.0
 11
-3.425927876999999
 21
502.019226074
 31
0.0
  0
LINE
  5
43
330
3B
100
AcDbEntity
  8
PLAIN_
  6
SOLID
 62
     3
100
AcDbLine
 10
-3.425927876999999
 20
502.019226074
 30
0.0
 11
-3.382241488
 21
504.018554688
 31
0.0
  0
ARC
  5
44
330
3B
100
AcDbEntity
  8
PLAIN_
  6
SOLID
 62
     3
100
AcDbCircle
 10
-9.402654648
 20
365.8073730469999
 30
0.0
 40
137.342559814
100
AcDbArc
 50
71.000008827
 51
90.00000238700001
  0
ARC
  5
45
330
3B
100
AcDbEntity
  8
PLAIN_
  6
SOLID
 62
     3
100
AcDbCircle
 10
-9.402654648
 20
365.8073730469999
 30
0.0
 40
137.342559814
100
AcDbArc
 50
71.000007322
 51
90.0
  0
TEXT
  5
46
330
3B
100
AcDbEntity
  8
PLAIN_
  6
SOLID
 62
     3
100
AcDbText
 10
7.243644713999999
 20
505.3015136719999
 30
0.0
 40
6.0
  1
19%%d
 50
350.6249711379999
 41
0.699897448
100
AcDbText
  0
ENDBLK
  5
47
330
3B
100
AcDbEntity
  8
0
100
AcDbBlockEnd
  0
BLOCK
  5
49
330
48
100
AcDbEntity
  8
PLAIN_
100
AcDbBlockBegin
  2
*U2
 70
     1
 10
0.0
 20
0.0
 30
0.0
  3
*U2
  1

  0
LINE
  5
4A
330
48
100
AcDbEntity
  8
PLAIN_
  6
SOLID
 62
     5
100
AcDbLine
 10
-336.517730713
 20
301.750610352
 30
0.0
 11
-335.4198913569999
 21
302.848419189
 31
0.0
  0
LINE
  5
4B
330
48
100
AcDbEntity
  8
PLAIN_
  6
SOLID
 62
     5
100
AcDbLine
 10
-336.460723877
 20
306.050231934
 30
0.0
 11
-338.0451660159999
 21
304.4657897949999
 31
0.0
  0
LINE
  5
4C
330
48
100
AcDbEntity
  8
PLAIN_
  6
SOLID
 62
     5
100
AcDbLine
 10
-342.287811279
 20
304.465820313
 30
0.0
 11
-338.4988403319999
 21
308.254760742
 31
0.0
  0
LINE
  5
4D
330
48
100
AcDbEntity
  8
PLAIN_
  6
SOLID
 62
     5
100
AcDbLine
 10
-339.974487305
 20
311.0217590329999
 30
0.0
 11
-344.65914917
 21
306.3371276859999
 31
0.0
  0
LINE
  5
4E
330
48
100
AcDbEntity
  8
PLAIN_
  6
SOLID
 62
     5
100
AcDbLine
 10
-344.65914917
 20
310.5797424319999
 30
0.0
 11
-340.531921387
 21
314.706970215
 31
0.0
  0
LINE
  5
4F
330
48
100
AcDbEntity
  8
PLAIN_
  6
SOLID
 62
     5
100
AcDbLine
 10
-341.0453186039999
 20
318.436218262
 30
0.0
 11
-344.65914917
 21
314.8223876949999
 31
0.0
  0
LINE
  5
50
330
48
100
AcDbEntity
  8
PLAIN_
  6
SOLID
 62
     5
100
AcDbLine
 10
-345.268798828
 20
318.4553833009999
 30
0.0
 11
-340.939910889
 21
322.78427124
 31
0.0
  0
LINE
  5
51
330
48
100
AcDbEntity
  8
PLAIN_
  6
SOLID
 62
     5
100
AcDbLine
 10
-342.1788330079999
 20
325.7879943849999
 30
0.0
 11
-345.2688293459999
 21
322.6979980469999
 31
0.0
  0
LINE
  5
52
330
48
100
AcDbEntity
  8
PLAIN_
  6
SOLID
 62
     5
100
AcDbLine
 10
-346.518066406
 20
325.6914062499999
 30
0.0
 11
-343.2954711909999
 21
328.914001465
 31
0.0
  0
LINE
  5
53
330
48
100
AcDbEntity
  8
PLAIN_
  6
SOLID
 62
     5
100
AcDbLine
 10
-343.9266967769999
 20
332.525421143
 30
0.0
 11
-346.518066406
 21
329.934051514
 31
0.0
  0
LINE
  5
54
330
48
100
AcDbEntity
  8
PLAIN_
  6
SOLID
 62
     5
100
AcDbLine
 10
-346.518066406
 20
334.176696777
 30
0.0
 11
-344.110992432
 21
336.5837402339999
 31
0.0
  0
LINE
  5
55
330
48
100
AcDbEntity
  8
PLAIN_
  6
SOLID
 62
     5
100
AcDbLine
 10
-344.558166504
 20
340.3792114259999
 30
0.0
 11
-346.518066406
 21
338.4193115229999
 31
0.0
  0
LINE
  5
56
330
48
100
AcDbEntity
  8
PLAIN_
  6
SOLID
 62
     5
100
AcDbLine
 10
-347.910186768
 20
341.2698364259999
 30
0.0
 11
-345.351776123
 21
343.8282165529999
 31
0.0
  0
LINE
  5
57
330
48
100
AcDbEntity
  8
PLAIN_
  6
SOLID
 62
     5
100
AcDbLine
 10
-345.9086303709999
 20
347.5140380859999
 30
0.0
 11
-348.018035889
 21
345.4046020509999
 31
0.0
  0
LINE
  5
58
330
48
100
AcDbEntity
  8
PLAIN_
  6
SOLID
 62
     5
100
AcDbLine
 10
-348.018066406
 20
349.647247314
 30
0.0
 11
-347.7565917969999
 21
349.908721924
 31
0.0
  0
ENDBLK
  5
59
330
48
100
AcDbEntity
  8
0
100
AcDbBlockEnd
  0
BLOCK
  5
5B
330
5A
100
AcDbEntity
  8
PLAIN_
100
AcDbBlockBegin
  2
*D3
 70
     1
 10
0.0
 20
0.0
 30
0.0
  3
*D3
  1

  0
LINE
  5
5C
330
5A
100
AcDbEntity
  8
PLAIN_
  6
SOLID
 62
     3
100
AcDbLine
 10
129.6473388669999
 20
365.808837891
 30
0.0
 11
126.282913208
 21
365.808837891
 31
0.0
  0
LINE
  5
5D
330
5A
100
AcDbEntity
  8
PLAIN_
  6
SOLID
 62
     3
100
AcDbLine
 10
47.110420227
 20
466.771575928
 30
0.0
 11
126.4829101559999
 21
466.771575928
 31
0.0
  0
LINE
  5
5E
330
5A
100
AcDbEntity
  8
PLAIN_
  6
SOLID
 62
     3
100
AcDbLine
 10
126.382911682
 20
365.808837891
 30
0.0
 11
126.382911682
 21
466.771575928
 31
0.0
  0
LINE
  5
5F
330
5A
100
AcDbEntity
  8
PLAIN_
  6
SOLID
 62
     3
100
AcDbLine
 10
125.216362
 20
372.8088378909999
 30
0.0
 11
126.382911682
 21
365.808837891
 31
0.0
  0
LINE
  5
60
330
5A
100
AcDbEntity
  8
PLAIN_
  6
SOLID
 62
     3
100
AcDbLine
 10
126.382911682
 20
365.808837891
 30
0.0
 11
127.549461365
 21
372.8088378909999
 31
0.0
  0
LINE
  5
61
330
5A
100
AcDbEntity
  8
PLAIN_
  6
SOLID
 62
     3
100
AcDbLine
 10
127.549461365
 20
372.8088378909999
 30
0.0
 11
125.216362
 21
372.8088378909999
 31
0.0
  0
LINE
  5
62
330
5A
100
AcDbEntity
  8
PLAIN_
  6
SOLID
 62
     3
100
AcDbLine
 10
126.382911682
 20
466.771575928
 30
0.0
 11
126.382911682
 21
365.808837891
 31
0.0
  0
LINE
  5
63
330
5A
100
AcDbEntity
  8
PLAIN_
  6
SOLID
 62
     3
100
AcDbLine
 10
127.549461365
 20
459.7715759279999
 30
0.0
 11
126.382911682
 21
466.771575928
 31
0.0
  0
LINE
  5
64
330
5A
100
AcDbEntity
  8
PLAIN_
  6
SOLID
 62
     3
100
AcDbLine
 10
126.382911682
 20
466.771575928
 30
0.0
 11
125.216362
 21
459.7715759279999
 31
0.0
  0
LINE
  5
65
330
5A
100
AcDbEntity
  8
PLAIN_
  6
SOLID
 62
     3
100
AcDbLine
 10
125.216362
 20
459.7715759279999
 30
0.0
 11
127.549461365
 21
459.7715759279999
 31
0.0
  0
TEXT
  5
66
330
5A
100
AcDbEntity
  8
PLAIN_
  6
SOLID
 62
     3
100
AcDbText
 10
122.882911682
 20
402.3059997559999
 30
0.0
 40
7.0
  1
101
 50
90.00000250399999
 41
0.699897494
100
AcDbText
  0
ENDBLK
  5
67
330
5A
100
AcDbEntity
  8
0
100
AcDbBlockEnd
  0
BLOCK
  5
69
330
68
100
AcDbEntity
  8
PLAIN_
100
AcDbBlockBegin
  2
*D4
 70
     1
 10
0.0
 20
0.0
 30
0.0
  3
*D4
  1

  0
LINE
  5
6A
330
68
100
AcDbEntity
  8
PLAIN_
  6
SOLID
 62
     3
100
AcDbLine
 10
-345.517730713
 20
484.565795898
 30
0.0
 11
-345.517730713
 21
497.6438293459999
 31
0.0
  0
LINE
  5
6B
330
68
100
AcDbEntity
  8
PLAIN_
  6
SOLID
 62
     3
100
AcDbLine
 10
-214.5177307129999
 20
470.5661315919999
 30
0.0
 11
-214.5177307129999
 21
497.6438293459999
 31
0.0
  0
LINE
  5
6C
330
68
100
AcDbEntity
  8
PLAIN_
  6
SOLID
 62
     3
100
AcDbLine
 10
-345.517730713
 20
497.543823242
 30
0.0
 11
-214.5177307129999
 21
497.543823242
 31
0.0
  0
LINE
  5
6D
330
68
100
AcDbEntity
  8
PLAIN_
  6
SOLID
 62
     3
100
AcDbLine
 10
-338.517730713
 20
498.710388184
 30
0.0
 11
-345.517730713
 21
497.543823242
 31
0.0
  0
LINE
  5
6E
330
68
100
AcDbEntity
  8
PLAIN_
  6
SOLID
 62
     3
100
AcDbLine
 10
-345.517730713
 20
497.543823242
 30
0.0
 11
-338.517730713
 21
496.3772583009999
 31
0.0
  0
LINE
  5
6F
330
68
100
AcDbEntity
  8
PLAIN_
  6
SOLID
 62
     3
100
AcDbLine
 10
-338.517730713
 20
496.3772583009999
 30
0.0
 11
-338.517730713
 21
498.710388184
 31
0.0
  0
LINE
  5
70
330
68
100
AcDbEntity
  8
PLAIN_
  6
SOLID
 62
     3
100
AcDbLine
 10
-214.5177307129999
 20
497.543823242
 30
0.0
 11
-345.517730713
 21
497.543823242
 31
0.0
  0
LINE
  5
71
330
68
100
AcDbEntity
  8
PLAIN_
  6
SOLID
 62
     3
100
AcDbLine
 10
-221.5177307129999
 20
496.3772583009999
 30
0.0
 11
-214.5177307129999
 21
497.543823242
 31
0.0
  0
LINE
  5
72
330
68
100
AcDbEntity
  8
PLAIN_
  6
SOLID
 62
     3
100
AcDbLine
 10
-214.5177307129999
 20
497.543823242
 30
0.0
 11
-221.5177307129999
 21
498.710388184
 31
0.0
  0
LINE
  5
73
330
68
100
AcDbEntity
  8
PLAIN_
  6
SOLID
 62
     3
100
AcDbLine
 10
-221.5177307129999
 20
498.710388184
 30
0.0
 11
-221.5177307129999
 21
496.3772583009999
 31
0.0
  0
TEXT
  5
74
330
68
100
AcDbEntity
  8
PLAIN_
  6
SOLID
 62
     3
100
AcDbText
 10
-286.2922668459999
 20
501.0438232419999
 30
0.0
 40
7.0
  1
131
 41
0.699897494
100
AcDbText
  0
ENDBLK
  5
75
330
68
100
AcDbEntity
  8
0
100
AcDbBlockEnd
  0
BLOCK
  5
77
330
76
100
AcDbEntity
  8
PLAIN_
100
AcDbBlockBegin
  2
*U5
 70
     1
 10
0.0
 20
0.0
 30
0.0
  3
*U5
  1

  0
LINE
  5
78
330
76
100
AcDbEntity
  8
PLAIN_
  6
SOLID
 62
     7
100
AcDbLine
 10
-313.597839355
 20
248.054504395
 30
0.0
 11
-312.583251953
 21
247.039978027
 31
0.0
  0
LINE
  5
79
330
76
100
AcDbEntity
  8
PLAIN_
  6
SOLID
 62
     7
100
AcDbLine
 10
-312.0765380859999
 20
247.240325928
 30
0.0
 11
-313.636901855
 21
248.8006896969999
 31
0.0
  0
LINE
  5
7A
330
76
100
AcDbEntity
  8
PLAIN_
  6
SOLID
 62
     7
100
AcDbLine
 10
-313.483459473
 20
249.3543396
 30
0.0
 11
-311.767089844
 21
247.6380310059999
 31
0.0
  0
LINE
  5
7B
330
76
100
AcDbEntity
  8
PLAIN_
  6
SOLID
 62
     7
100
AcDbLine
 10
-311.58996582
 20
248.1679992679999
 30
0.0
 11
-313.194335938
 21
249.7723693849999
 31
0.0
  0
LINE
  5
7C
330
76
100
AcDbEntity
  8
PLAIN_
  6
SOLID
 62
     7
100
AcDbLine
 10
-312.7353515629999
 20
250.020446777
 30
0.0
 11
-311.584594727
 21
248.8696899409999
 31
0.0
  0
ENDBLK
  5
7D
330
76
100
AcDbEntity
  8
0
100
AcDbBlockEnd
  0
BLOCK
  5
7F
330
7E
100
AcDbEntity
  8
PLAIN_
100
AcDbBlockBegin
  2
*D6
 70
     1
 10
0.0
 20
0.0
 30
0.0
  3
*D6
  1

  0
LINE
  5
80
330
7E
100
AcDbEntity
  8
PLAIN_
  6
SOLID
 62
     3
100
AcDbLine
 10
-15.37947750099999
 20
502.563446045
 30
0.0
 11
-9.402654648
 21
503.6936645509999
 31
0.0
  0
LINE
  5
81
330
7E
100
AcDbEntity
  8
PLAIN_
  6
SOLID
 62
     3
100
AcDbLine
 10
-9.402654648
 20
503.6936645509999
 30
0.0
 11
-15.422991753
 21
504.562774658
 31
0.0
  0
LINE
  5
82
330
7E
100
AcDbEntity
  8
PLAIN_
  6
SOLID
 62
     3
100
AcDbLine
 10
-15.422991753
 20
504.562774658
 30
0.0
 11
-15.37947750099999
 21
502.563446045
 31
0.0
  0
LINE
  5
83
330
7E
100
AcDbEntity
  8
PLAIN_
  6
SOLID
 62
     3
100
AcDbLine
 10
-86.089614868
 20
481.6018066409999
 30
0.0
 11
-90.44931793200001
 21
477.3600158689999
 31
0.0
  0
LINE
  5
84
330
7E
100
AcDbEntity
  8
PLAIN_
  6
SOLID
 62
     3
100
AcDbLine
 10
-90.44931793200001
 20
477.3600158689999
 30
0.0
 11
-84.94964599600001
 21
479.958740234
 31
0.0
  0
LINE
  5
85
330
7E
100
AcDbEntity
  8
PLAIN_
  6
SOLID
 62
     3
100
AcDbLine
 10
-84.94964599600001
 20
479.958740234
 30
0.0
 11
-86.089614868
 21
481.6018066409999
 31
0.0
  0
ARC
  5
86
330
7E
100
AcDbEntity
  8
PLAIN_
  6
SOLID
 62
     3
100
AcDbCircle
 10
-9.402654648
 20
365.808837891
 30
0.0
 40
137.8848266599999
100
AcDbArc
 50
90.0
 51
125.999993547
  0
ARC
  5
87
330
7E
100
AcDbEntity
  8
PLAIN_
  6
SOLID
 62
     3
100
AcDbCircle
 10
-9.402654648
 20
365.808837891
 30
0.0
 40
137.8848266599999
100
AcDbArc
 50
90.000002378
 51
125.999996112
  0
TEXT
  5
88
330
7E
100
AcDbEntity
  8
PLAIN_
  6
SOLID
 62
     3
100
AcDbText
 10
-62.214744568
 20
496.5723571779999
 30
0.0
 40
6.0
  1
36%%d
 50
19.43250632099999
 41
0.699897448
100
AcDbText
  0
ENDBLK
  5
89
330
7E
100
AcDbEntity
  8
0
100
AcDbBlockEnd
  0
BLOCK
  5
8B
330
8A
100
AcDbEntity
  8
PLAIN_
100
AcDbBlockBegin
  2
*D7
 70
     1
 10
0.0
 20
0.0
 30
0.0
  3
*D7
  1

  0
LINE
  5
8C
330
8A
100
AcDbEntity
  8
PLAIN_
  6
SOLID
 62
     3
100
AcDbLine
 10
-94.377861023
 20
472.5989074709999
 30
0.0
 11
-90.20711517299998
 21
477.0266418459999
 31
0.0
  0
LINE
  5
8D
330
8A
100
AcDbEntity
  8
PLAIN_
  6
SOLID
 62
     3
100
AcDbLine
 10
-90.20711517299998
 20
477.0266418459999
 30
0.0
 11
-95.588340759
 21
474.190765381
 31
0.0
  0
LINE
  5
8E
330
8A
100
AcDbEntity
  8
PLAIN_
  6
SOLID
 62
     3
100
AcDbLine
 10
-95.588340759
 20
474.190765381
 30
0.0
 11
-94.377861023
 21
472.5989074709999
 31
0.0
  0
LINE
  5
8F
330
8A
100
AcDbEntity
  8
PLAIN_
  6
SOLID
 62
     3
100
AcDbLine
 10
-142.833648682
 20
328.784729004
 30
0.0
 11
-140.1470336909999
 21
323.3274230959999
 31
0.0
  0
LINE
  5
90
330
8A
100
AcDbEntity
  8
PLAIN_
  6
SOLID
 62
     3
100
AcDbLine
 10
-140.1470336909999
 20
323.3274230959999
 30
0.0
 11
-140.918701172
 21
329.361022949
 31
0.0
  0
LINE
  5
91
330
8A
100
AcDbEntity
  8
PLAIN_
  6
SOLID
 62
     3
100
AcDbLine
 10
-140.918701172
 20
329.361022949
 30
0.0
 11
-142.833648682
 21
328.784729004
 31
0.0
  0
ARC
  5
92
330
8A
100
AcDbEntity
  8
PLAIN_
  6
SOLID
 62
     3
100
AcDbCircle
 10
-9.402656555
 20
365.808837891
 30
0.0
 40
137.472763062
100
AcDbArc
 50
125.999998035
 51
197.999996627
  0
ARC
  5
93
330
8A
100
AcDbEntity
  8
PLAIN_
  6
SOLID
 62
     3
100
AcDbCircle
 10
-9.402656555
 20
365.808837891
 30
0.0
 40
137.472763062
100
AcDbArc
 50
125.999995463
 51
197.999996627
  0
TEXT
  5
94
330
8A
100
AcDbEntity
  8
PLAIN_
  6
SOLID
 62
     3
100
AcDbText
 10
-143.2734375
 20
408.8308105469999
 30
0.0
 40
6.0
  1
72%%d
 50
69.616634813
 41
0.699897448
100
AcDbText
  0
ENDBLK
  5
95
330
8A
100
AcDbEntity
  8
0
100
AcDbBlockEnd
  0
BLOCK
  5
97
330
96
100
AcDbEntity
  8
PLAIN_
100
AcDbBlockBegin
  2
*D8
 70
     1
 10
0.0
 20
0.0
 30
0.0
  3
*D8
  1

  0
LINE
  5
98
330
96
100
AcDbEntity
  8
PLAIN_
  6
SOLID
 62
     3
100
AcDbLine
 10
-38.139011383
 20
250.5536193849999
 30
0.0
 11
-44.172237396
 21
226.355667114
 31
0.0
  0
LINE
  5
99
330
96
100
AcDbEntity
  8
PLAIN_
  6
SOLID
 62
     3
100
AcDbLine
 10
-9.402667999
 20
226.5588378909999
 30
0.0
 11
-9.402667999
 21
222.086502075
 31
0.0
  0
LINE
  5
9A
330
96
100
AcDbEntity
  8
PLAIN_
  6
SOLID
 62
     3
100
AcDbLine
 10
-38.075637817
 20
226.0981292719999
 30
0.0
 11
-44.148044586
 21
226.452697754
 31
0.0
  0
LINE
  5
9B
330
96
100
AcDbEntity
  8
PLAIN_
  6
SOLID
 62
     3
100
AcDbLine
 10
-44.148044586
 20
226.452697754
 30
0.0
 11
-38.518798828
 21
224.1480560299999
 31
0.0
  0
LINE
  5
9C
330
96
100
AcDbEntity
  8
PLAIN_
  6
SOLID
 62
     3
100
AcDbLine
 10
-38.518798828
 20
224.1480560299999
 30
0.0
 11
-38.075637817
 21
226.0981292719999
 31
0.0
  0
LINE
  5
9D
330
96
100
AcDbEntity
  8
PLAIN_
  6
SOLID
 62
     3
100
AcDbLine
 10
-15.422246933
 20
221.312164307
 30
0.0
 11
-9.402667999
 21
222.186508179
 31
0.0
  0
LINE
  5
9E
330
96
100
AcDbEntity
  8
PLAIN_
  6
SOLID
 62
     3
100
AcDbLine
 10
-9.402667999
 20
222.186508179
 30
0.0
 11
-15.380472183
 21
223.311523438
 31
0.0
  0
LINE
  5
9F
330
96
100
AcDbEntity
  8
PLAIN_
  6
SOLID
 62
     3
100
AcDbLine
 10
-15.380472183
 20
223.311523438
 30
0.0
 11
-15.422246933
 21
221.312164307
 31
0.0
  0
ARC
  5
A0
330
96
100
AcDbEntity
  8
PLAIN_
  6
SOLID
 62
     3
100
AcDbCircle
 10
-9.402667999
 20
365.808807373
 30
0.0
 40
143.622299194
100
AcDbArc
 50
256.0000015129999
 51
269.999997337
  0
ARC
  5
A1
330
96
100
AcDbEntity
  8
PLAIN_
  6
SOLID
 62
     3
100
AcDbCircle
 10
-9.402667999
 20
365.808807373
 30
0.0
 40
143.622299194
100
AcDbArc
 50
256.0000015129999
 51
270.0
  0
TEXT
  5
A2
330
96
100
AcDbEntity
  8
PLAIN_
  6
SOLID
 62
     3
100
AcDbText
 10
-32.916439056
 20
227.1663360599999
 30
0.0
 40
6.0
  1
14%%d
 50
352.9416107949999
 41
0.699897448
100
AcDbText
  0
ENDBLK
  5
A3
330
96
100
AcDbEntity
  8
0
100
AcDbBlockEnd
  0
BLOCK
  5
A5
330
A4
100
AcDbEntity
  8
PLAIN_
100
AcDbBlockBegin
  2
*D9
 70
     1
 10
0.0
 20
0.0
 30
0.0
  3
*D9
  1

  0
LINE
  5
A6
330
A4
100
AcDbEntity
  8
PLAIN_
  6
SOLID
 62
     3
100
AcDbLine
 10
10.99239730799999
 20
463.7067565919999
 30
0.0
 11
-9.402744292999999
 21
365.8086547849999
 31
0.0
  0
LINE
  5
A7
330
A4
100
AcDbEntity
  8
PLAIN_
  6
SOLID
 62
     3
100
AcDbLine
 10
10.747571945
 20
457.628936768
 30
0.0
 11
10.99239730799999
 21
463.7067565919999
 31
0.0
  0
LINE
  5
A8
330
A4
100
AcDbEntity
  8
PLAIN_
  6
SOLID
 62
     3
100
AcDbLine
 10
10.99239730799999
 20
463.7067565919999
 30
0.0
 11
8.789806366
 21
458.036773682
 31
0.0
  0
LINE
  5
A9
330
A4
100
AcDbEntity
  8
PLAIN_
  6
SOLID
 62
     3
100
AcDbLine
 10
8.789806366
 20
458.036773682
 30
0.0
 11
10.747571945
 21
457.628936768
 31
0.0
  0
TEXT
  5
AA
330
A4
100
AcDbEntity
  8
PLAIN_
  6
SOLID
 62
     3
100
AcDbText
 10
2.191376208999999
 20
436.170623779
 30
0.0
 40
6.0
  1
R
 50
78.23188026300001
 41
0.583230774
100
AcDbText
  0
TEXT
  5
AB
330
A4
100
AcDbEntity
  8
PLAIN_
  6
SOLID
 62
     3
100
AcDbText
 10
3.272317886
 20
441.3592224119999
 30
0.0
 40
6.0
  1
100
 50
78.23188026300001
 41
0.7832307820000001
100
AcDbText
  0
ENDBLK
  5
AC
330
A4
100
AcDbEntity
  8
0
100
AcDbBlockEnd
  0
BLOCK
  5
AE
330
AD
100
AcDbEntity
  8
PLAIN_
100
AcDbBlockBegin
  2
*U10
 70
     1
 10
0.0
 20
0.0
 30
0.0
  3
*U10
  1

  0
LINE
  5
AF
330
AD
100
AcDbEntity
  8
PLAIN_
  6
SOLID
 62
     3
100
AcDbLine
 10
-351.50390625
 20
302.6762084959999
 30
0.0
 11
-372.1702270509999
 21
290.469268799
 31
0.0
  0
LINE
  5
B0
330
AD
100
AcDbEntity
  8
PLAIN_
  6
SOLID
 62
     3
100
AcDbLine
 10
-372.1702270509999
 20
290.469268799
 30
0.0
 11
-403.8427429199999
 21
290.469268799
 31
0.0
  0
LINE
  5
B1
330
AD
100
AcDbEntity
  8
PLAIN_
  6
SOLID
 62
     3
100
AcDbLine
 10
-356.161499023
 20
298.7638244629999
 30
0.0
 11
-351.50390625
 21
302.6762084959999
 31
0.0
  0
LINE
  5
B2
330
AD
100
AcDbEntity
  8
PLAIN_
  6
SOLID
 62
     3
100
AcDbLine
 10
-351.50390625
 20
302.6762084959999
 30
0.0
 11
-357.178527832
 21
300.485687256
 31
0.0
  0
LINE
  5
B3
330
AD
100
AcDbEntity
  8
PLAIN_
  6
SOLID
 62
     3
100
AcDbLine
 10
-357.178527832
 20
300.485687256
 30
0.0
 11
-356.161499023
 21
298.7638244629999
 31
0.0
  0
TEXT
  5
B4
330
AD
100
AcDbEntity
  8
PLAIN_
  6
SOLID
 62
     3
100
AcDbText
 10
-420.861022949
 20
279.7805480959999
 30
0.0
 40
6.0
  1
PILOT
 41
0.63757782
100
AcDbText
  0
TEXT
  5
B5
330
AD
100
AcDbEntity
  8
PLAIN_
  6
SOLID
 62
     3
100
AcDbText
 10
-420.861022949
 20
270.7805480959999
 30
0.0
 40
6.0
  1
PORT
 41
0.728708108
100
AcDbText
  0
TEXT
  5
B6
330
AD
100
AcDbEntity
  8
PLAIN_
  6
SOLID
 62
     3
100
AcDbText
 10
-420.861022949
 20
261.7805480959999
 30
0.0
 40
6.0
  1
1/8" BSP
 41
0.709095478
100
AcDbText
  0
ENDBLK
  5
B7
330
AD
100
AcDbEntity
  8
0
100
AcDbBlockEnd
  0
BLOCK
  5
B9
330
B8
100
AcDbEntity
  8
PLAIN_
100
AcDbBlockBegin
  2
*U11
 70
     1
 10
0.0
 20
0.0
 30
0.0
  3
*U11
  1

  0
LINE
  5
BA
330
B8
100
AcDbEntity
  8
PLAIN_
  6
SOLID
 62
     3
100
AcDbLine
 10
-25.664222717
 20
302.637329102
 30
0.0
 11
-57.315402985
 21
246.705780029
 31
0.0
  0
LINE
  5
BB
330
B8
100
AcDbEntity
  8
PLAIN_
  6
SOLID
 62
     3
100
AcDbLine
 10
-57.315402985
 20
246.705780029
 30
0.0
 11
-70.288352966
 21
246.705780029
 31
0.0
  0
LINE
  5
BC
330
B8
100
AcDbEntity
  8
PLAIN_
  6
SOLID
 62
     3
100
AcDbLine
 10
-28.096471786
 20
295.9706115719999
 30
0.0
 11
-25.664222717
 21
302.637329102
 31
0.0
  0
LINE
  5
BD
330
B8
100
AcDbEntity
  8
PLAIN_
  6
SOLID
 62
     3
100
AcDbLine
 10
-25.664222717
 20
302.637329102
 30
0.0
 11
-30.126996994
 21
297.119659424
 31
0.0
  0
LINE
  5
BE
330
B8
100
AcDbEntity
  8
PLAIN_
  6
SOLID
 62
     3
100
AcDbLine
 10
-30.126996994
 20
297.119659424
 30
0.0
 11
-28.096471786
 21
295.9706115719999
 31
0.0
  0
TEXT
  5
BF
330
B8
100
AcDbEntity
  8
PLAIN_
  6
SOLID
 62
     3
100
AcDbText
 10
-113.5906143189999
 20
251.1444244379999
 30
0.0
 40
7.0
  1
PILOT
 41
0.637577765
100
AcDbText
  0
TEXT
  5
C0
330
B8
100
AcDbEntity
  8
PLAIN_
  6
SOLID
 62
     3
100
AcDbText
 10
-113.5906143189999
 20
240.6444244379999
 30
0.0
 40
7.0
  1
PORT
 41
0.728708131
100
AcDbText
  0
TEXT
  5
C1
330
B8
100
AcDbEntity
  8
PLAIN_
  6
SOLID
 62
     3
100
AcDbText
 10
-113.5906143189999
 20
230.1444244379999
 30
0.0
 40
7.0
  1
1/8" BSP
 41
0.7090955459999999
100
AcDbText
  0
ENDBLK
  5
C2
330
B8
100
AcDbEntity
  8
0
100
AcDbBlockEnd
  0
BLOCK
  5
C4
330
C3
100
AcDbEntity
  8
PLAIN_
100
AcDbBlockBegin
  2
*D12
 70
     1
 10
0.0
 20
0.0
 30
0.0
  3
*D12
  1

  0
LINE
  5
C5
330
C3
100
AcDbEntity
  8
PLAIN_
  6
SOLID
 62
     3
100
AcDbLine
 10
-378.517730713
 20
427.065795898
 30
0.0
 11
-378.517730713
 21
497.6438293459999
 31
0.0
  0
LINE
  5
C6
330
C3
100
AcDbEntity
  8
PLAIN_
  6
SOLID
 62
     3
100
AcDbLine
 10
-345.517730713
 20
484.565795898
 30
0.0
 11
-345.517730713
 21
497.6438293459999
 31
0.0
  0
LINE
  5
C7
330
C3
100
AcDbEntity
  8
PLAIN_
  6
SOLID
 62
     3
100
AcDbLine
 10
-378.517730713
 20
497.543823242
 30
0.0
 11
-345.517730713
 21
497.543823242
 31
0.0
  0
LINE
  5
C8
330
C3
100
AcDbEntity
  8
PLAIN_
  6
SOLID
 62
     3
100
AcDbLine
 10
-371.517730713
 20
498.710388184
 30
0.0
 11
-378.517730713
 21
497.543823242
 31
0.0
  0
LINE
  5
C9
330
C3
100
AcDbEntity
  8
PLAIN_
  6
SOLID
 62
     3
100
AcDbLine
 10
-378.517730713
 20
497.543823242
 30
0.0
 11
-371.517730713
 21
496.3772583009999
 31
0.0
  0
LINE
  5
CA
330
C3
100
AcDbEntity
  8
PLAIN_
  6
SOLID
 62
     3
100
AcDbLine
 10
-371.517730713
 20
496.3772583009999
 30
0.0
 11
-371.517730713
 21
498.710388184
 31
0.0
  0
LINE
  5
CB
330
C3
100
AcDbEntity
  8
PLAIN_
  6
SOLID
 62
     3
100
AcDbLine
 10
-345.517730713
 20
497.543823242
 30
0.0
 11
-378.517730713
 21
497.543823242
 31
0.0
  0
LINE
  5
CC
330
C3
100
AcDbEntity
  8
PLAIN_
  6
SOLID
 62
     3
100
AcDbLine
 10
-352.517730713
 20
496.3772583009999
 30
0.0
 11
-345.517730713
 21
497.543823242
 31
0.0
  0
LINE
  5
CD
330
C3
100
AcDbEntity
  8
PLAIN_
  6
SOLID
 62
     3
100
AcDbLine
 10
-345.517730713
 20
497.543823242
 30
0.0
 11
-352.517730713
 21
498.710388184
 31
0.0
  0
LINE
  5
CE
330
C3
100
AcDbEntity
  8
PLAIN_
  6
SOLID
 62
     3
100
AcDbLine
 10
-352.517730713
 20
498.710388184
 30
0.0
 11
-352.517730713
 21
496.3772583009999
 31
0.0
  0
TEXT
  5
CF
330
C3
100
AcDbEntity
  8
PLAIN_
  6
SOLID
 62
     3
100
AcDbText
 10
-364.343322754
 20
501.0438232419999
 30
0.0
 40
7.0
  1
33
 41
0.733230795
100
AcDbText
  0
ENDBLK
  5
D0
330
C3
100
AcDbEntity
  8
0
100
AcDbBlockEnd
  0
BLOCK
  5
D2
330
D1
100
AcDbEntity
  8
PLAIN_
100
AcDbBlockBegin
  2
*D13
 70
     1
 10
0.0
 20
0.0
 30
0.0
  3
*D13
  1

  0
LINE
  5
D3
330
D1
100
AcDbEntity
  8
PLAIN_
  6
SOLID
 62
     3
100
AcDbLine
 10
-378.517730713
 20
427.065795898
 30
0.0
 11
-378.517730713
 21
472.905761719
 31
0.0
  0
LINE
  5
D4
330
D1
100
AcDbEntity
  8
PLAIN_
  6
SOLID
 62
     3
100
AcDbLine
 10
-368.517730713
 20
428.065795898
 30
0.0
 11
-368.517730713
 21
472.905761719
 31
0.0
  0
LINE
  5
D5
330
D1
100
AcDbEntity
  8
PLAIN_
  6
SOLID
 62
     3
100
AcDbLine
 10
-378.517730713
 20
472.805755615
 30
0.0
 11
-389.017730713
 21
472.805755615
 31
0.0
  0
LINE
  5
D6
330
D1
100
AcDbEntity
  8
PLAIN_
  6
SOLID
 62
     3
100
AcDbLine
 10
-389.017730713
 20
472.805755615
 30
0.0
 11
-352.370483398
 21
472.805755615
 31
0.0
  0
LINE
  5
D7
330
D1
100
AcDbEntity
  8
PLAIN_
  6
SOLID
 62
     3
100
AcDbLine
 10
-385.517730713
 20
471.639190674
 30
0.0
 11
-378.517730713
 21
472.805755615
 31
0.0
  0
LINE
  5
D8
330
D1
100
AcDbEntity
  8
PLAIN_
  6
SOLID
 62
     3
100
AcDbLine
 10
-378.517730713
 20
472.805755615
 30
0.0
 11
-385.517730713
 21
473.9723205569999
 31
0.0
  0
LINE
  5
D9
330
D1
100
AcDbEntity
  8
PLAIN_
  6
SOLID
 62
     3
100
AcDbLine
 10
-385.517730713
 20
473.9723205569999
 30
0.0
 11
-385.517730713
 21
471.639190674
 31
0.0
  0
LINE
  5
DA
330
D1
100
AcDbEntity
  8
PLAIN_
  6
SOLID
 62
     3
100
AcDbLine
 10
-368.517730713
 20
472.805755615
 30
0.0
 11
-352.370483398
 21
472.805755615
 31
0.0
  0
LINE
  5
DB
330
D1
100
AcDbEntity
  8
PLAIN_
  6
SOLID
 62
     3
100
AcDbLine
 10
-352.370483398
 20
472.805755615
 30
0.0
 11
-389.017730713
 21
472.805755615
 31
0.0
  0
LINE
  5
DC
330
D1
100
AcDbEntity
  8
PLAIN_
  6
SOLID
 62
     3
100
AcDbLine
 10
-361.517730713
 20
473.9723205569999
 30
0.0
 11
-368.517730713
 21
472.805755615
 31
0.0
  0
LINE
  5
DD
330
D1
100
AcDbEntity
  8
PLAIN_
  6
SOLID
 62
     3
100
AcDbLine
 10
-368.517730713
 20
472.805755615
 30
0.0
 11
-361.517730713
 21
471.639190674
 31
0.0
  0
LINE
  5
DE
330
D1
100
AcDbEntity
  8
PLAIN_
  6
SOLID
 62
     3
100
AcDbLine
 10
-361.517730713
 20
471.639190674
 30
0.0
 11
-361.517730713
 21
473.9723205569999
 31
0.0
  0
TEXT
  5
DF
330
D1
100
AcDbEntity
  8
PLAIN_
  6
SOLID
 62
     3
100
AcDbText
 10
-365.727386475
 20
476.305755615
 30
0.0
 40
7.0
  1
10
 41
0.733230795
100
AcDbText
  0
ENDBLK
  5
E0
330
D1
100
AcDbEntity
  8
0
100
AcDbBlockEnd
  0
BLOCK
  5
E2
330
E1
100
AcDbEntity
  8
PLAIN_
100
AcDbBlockBegin
  2
*D14
 70
     1
 10
0.0
 20
0.0
 30
0.0
  3
*D14
  1

  0
LINE
  5
E3
330
E1
100
AcDbEntity
  8
PLAIN_
  6
SOLID
 62
     3
100
AcDbLine
 10
-462.5177612299999
 20
381.565795898
 30
0.0
 11
-462.5177612299999
 21
518.7068481449999
 31
0.0
  0
LINE
  5
E4
330
E1
100
AcDbEntity
  8
PLAIN_
  6
SOLID
 62
     3
100
AcDbLine
 10
-214.5177307129999
 20
470.5661315919999
 30
0.0
 11
-214.5177307129999
 21
518.7068481449999
 31
0.0
  0
LINE
  5
E5
330
E1
100
AcDbEntity
  8
PLAIN_
  6
SOLID
 62
     3
100
AcDbLine
 10
-462.5177612299999
 20
518.6068725590001
 30
0.0
 11
-214.5177307129999
 21
518.6068725590001
 31
0.0
  0
LINE
  5
E6
330
E1
100
AcDbEntity
  8
PLAIN_
  6
SOLID
 62
     3
100
AcDbLine
 10
-455.51776123
 20
519.7734375
 30
0.0
 11
-462.5177612299999
 21
518.6068725590001
 31
0.0
  0
LINE
  5
E7
330
E1
100
AcDbEntity
  8
PLAIN_
  6
SOLID
 62
     3
100
AcDbLine
 10
-462.5177612299999
 20
518.6068725590001
 30
0.0
 11
-455.51776123
 21
517.4403076169999
 31
0.0
  0
LINE
  5
E8
330
E1
100
AcDbEntity
  8
PLAIN_
  6
SOLID
 62
     3
100
AcDbLine
 10
-455.51776123
 20
517.4403076169999
 30
0.0
 11
-455.51776123
 21
519.7734375
 31
0.0
  0
LINE
  5
E9
330
E1
100
AcDbEntity
  8
PLAIN_
  6
SOLID
 62
     3
100
AcDbLine
 10
-214.5177307129999
 20
518.6068725590001
 30
0.0
 11
-462.5177612299999
 21
518.6068725590001
 31
0.0
  0
LINE
  5
EA
330
E1
100
AcDbEntity
  8
PLAIN_
  6
SOLID
 62
     3
100
AcDbLine
 10
-221.5177307129999
 20
517.4403076169999
 30
0.0
 11
-214.5177307129999
 21
518.6068725590001
 31
0.0
  0
LINE
  5
EB
330
E1
100
AcDbEntity
  8
PLAIN_
  6
SOLID
 62
     3
100
AcDbLine
 10
-214.5177307129999
 20
518.6068725590001
 30
0.0
 11
-221.5177307129999
 21
519.7734375
 31
0.0
  0
LINE
  5
EC
330
E1
100
AcDbEntity
  8
PLAIN_
  6
SOLID
 62
     3
100
AcDbLine
 10
-221.5177307129999
 20
519.7734375
 30
0.0
 11
-221.5177307129999
 21
517.4403076169999
 31
0.0
  0
TEXT
  5
ED
330
E1
100
AcDbEntity
  8
PLAIN_
  6
SOLID
 62
     3
100
AcDbText
 10
-338.0893249509999
 20
522.106872559
 30
0.0
 40
7.0
  1
248
 41
0.807692392
100
AcDbText
  0
ENDBLK
  5
EE
330
E1
100
AcDbEntity
  8
0
100
AcDbBlockEnd
  0
BLOCK
  5
F0
330
EF
100
AcDbEntity
  8
PLAIN_
100
AcDbBlockBegin
  2
*D15
 70
     1
 10
0.0
 20
0.0
 30
0.0
  3
*D15
  1

  0
LINE
  5
F1
330
EF
100
AcDbEntity
  8
PLAIN_
  6
SOLID
 62
     3
100
AcDbLine
 10
-462.5177612299999
 20
381.565795898
 30
0.0
 11
-462.5177612299999
 21
497.6438293459999
 31
0.0
  0
LINE
  5
F2
330
EF
100
AcDbEntity
  8
PLAIN_
  6
SOLID
 62
     3
100
AcDbLine
 10
-385.517730713
 20
427.065795898
 30
0.0
 11
-385.517730713
 21
497.6438293459999
 31
0.0
  0
LINE
  5
F3
330
EF
100
AcDbEntity
  8
PLAIN_
  6
SOLID
 62
     3
100
AcDbLine
 10
-462.5177612299999
 20
497.543823242
 30
0.0
 11
-385.517730713
 21
497.543823242
 31
0.0
  0
LINE
  5
F4
330
EF
100
AcDbEntity
  8
PLAIN_
  6
SOLID
 62
     3
100
AcDbLine
 10
-455.51776123
 20
498.710388184
 30
0.0
 11
-462.5177612299999
 21
497.543823242
 31
0.0
  0
LINE
  5
F5
330
EF
100
AcDbEntity
  8
PLAIN_
  6
SOLID
 62
     3
100
AcDbLine
 10
-462.5177612299999
 20
497.543823242
 30
0.0
 11
-455.51776123
 21
496.3772583009999
 31
0.0
  0
LINE
  5
F6
330
EF
100
AcDbEntity
  8
PLAIN_
  6
SOLID
 62
     3
100
AcDbLine
 10
-455.51776123
 20
496.3772583009999
 30
0.0
 11
-455.51776123
 21
498.710388184
 31
0.0
  0
LINE
  5
F7
330
EF
100
AcDbEntity
  8
PLAIN_
  6
SOLID
 62
     3
100
AcDbLine
 10
-385.517730713
 20
497.543823242
 30
0.0
 11
-462.5177612299999
 21
497.543823242
 31
0.0
  0
LINE
  5
F8
330
EF
100
AcDbEntity
  8
PLAIN_
  6
SOLID
 62
     3
100
AcDbLine
 10
-392.517730713
 20
496.3772583009999
 30
0.0
 11
-385.517730713
 21
497.543823242
 31
0.0
  0
LINE
  5
F9
330
EF
100
AcDbEntity
  8
PLAIN_
  6
SOLID
 62
     3
100
AcDbLine
 10
-385.517730713
 20
497.543823242
 30
0.0
 11
-392.517730713
 21
498.710388184
 31
0.0
  0
LINE
  5
FA
330
EF
100
AcDbEntity
  8
PLAIN_
  6
SOLID
 62
     3
100
AcDbLine
 10
-392.517730713
 20
498.710388184
 30
0.0
 11
-392.517730713
 21
496.3772583009999
 31
0.0
  0
TEXT
  5
FB
330
EF
100
AcDbEntity
  8
PLAIN_
  6
SOLID
 62
     3
100
AcDbText
 10
-424.116882324
 20
501.0438232419999
 30
0.0
 40
7.0
  1
77
 41
0.733230795
100
AcDbText
  0
ENDBLK
  5
FC
330
EF
100
AcDbEntity
  8
0
100
AcDbBlockEnd
  0
BLOCK
  5
FE
330
FD
100
AcDbEntity
  8
PLAIN_
100
AcDbBlockBegin
  2
*D16
 70
     1
 10
0.0
 20
0.0
 30
0.0
  3
*D16
  1

  0
LINE
  5
FF
330
FD
100
AcDbEntity
  8
PLAIN_
  6
SOLID
 62
     3
100
AcDbLine
 10
-385.517730713
 20
427.065795898
 30
0.0
 11
-385.517730713
 21
460.048248291
 31
0.0
  0
LINE
  5
100
330
FD
100
AcDbEntity
  8
PLAIN_
  6
SOLID
 62
     3
100
AcDbLine
 10
-378.517730713
 20
427.065795898
 30
0.0
 11
-378.517730713
 21
460.048248291
 31
0.0
  0
LINE
  5
101
330
FD
100
AcDbEntity
  8
PLAIN_
  6
SOLID
 62
     3
100
AcDbLine
 10
-385.517730713
 20
459.948242188
 30
0.0
 11
-406.0535888669999
 21
459.948242188
 31
0.0
  0
LINE
  5
102
330
FD
100
AcDbEntity
  8
PLAIN_
  6
SOLID
 62
     3
100
AcDbLine
 10
-406.0535888669999
 20
459.948242188
 30
0.0
 11
-368.017730713
 21
459.948242188
 31
0.0
  0
LINE
  5
103
330
FD
100
AcDbEntity
  8
PLAIN_
  6
SOLID
 62
     3
100
AcDbLine
 10
-392.517730713
 20
458.781677246
 30
0.0
 11
-385.517730713
 21
459.948242188
 31
0.0
  0
LINE
  5
104
330
FD
100
AcDbEntity
  8
PLAIN_
  6
SOLID
 62
     3
100
AcDbLine
 10
-385.517730713
 20
459.948242188
 30
0.0
 11
-392.517730713
 21
461.114807129
 31
0.0
  0
LINE
  5
105
330
FD
100
AcDbEntity
  8
PLAIN_
  6
SOLID
 62
     3
100
AcDbLine
 10
-392.517730713
 20
461.114807129
 30
0.0
 11
-392.517730713
 21
458.781677246
 31
0.0
  0
LINE
  5
106
330
FD
100
AcDbEntity
  8
PLAIN_
  6
SOLID
 62
     3
100
AcDbLine
 10
-378.517730713
 20
459.948242188
 30
0.0
 11
-368.017730713
 21
459.948242188
 31
0.0
  0
LINE
  5
107
330
FD
100
AcDbEntity
  8
PLAIN_
  6
SOLID
 62
     3
100
AcDbLine
 10
-368.017730713
 20
459.948242188
 30
0.0
 11
-406.0535888669999
 21
459.948242188
 31
0.0
  0
LINE
  5
108
330
FD
100
AcDbEntity
  8
PLAIN_
  6
SOLID
 62
     3
100
AcDbLine
 10
-371.517730713
 20
461.114807129
 30
0.0
 11
-378.517730713
 21
459.948242188
 31
0.0
  0
LINE
  5
109
330
FD
100
AcDbEntity
  8
PLAIN_
  6
SOLID
 62
     3
100
AcDbLine
 10
-378.517730713
 20
459.948242188
 30
0.0
 11
-371.517730713
 21
458.781677246
 31
0.0
  0
LINE
  5
10A
330
FD
100
AcDbEntity
  8
PLAIN_
  6
SOLID
 62
     3
100
AcDbLine
 10
-371.517730713
 20
458.781677246
 30
0.0
 11
-371.517730713
 21
461.114807129
 31
0.0
  0
TEXT
  5
10B
330
FD
100
AcDbEntity
  8
PLAIN_
  6
SOLID
 62
     3
100
AcDbText
 10
-402.961914063
 20
463.448242188
 30
0.0
 40
7.0
  1
7
 41
0.583230768
100
AcDbText
  0
ENDBLK
  5
10C
330
FD
100
AcDbEntity
  8
0
100
AcDbBlockEnd
  0
BLOCK
  5
10E
330
10D
100
AcDbEntity
  8
PLAIN_
100
AcDbBlockBegin
  2
*D17
 70
     1
 10
0.0
 20
0.0
 30
0.0
  3
*D17
  1

  0
LINE
  5
10F
330
10D
100
AcDbEntity
  8
PLAIN_
  6
SOLID
 62
     3
100
AcDbLine
 10
-214.4177246089999
 20
277.9657897949999
 30
0.0
 11
-171.7230987549999
 21
277.9657897949999
 31
0.0
  0
LINE
  5
110
330
10D
100
AcDbEntity
  8
PLAIN_
  6
SOLID
 62
     3
100
AcDbLine
 10
-214.4177246089999
 20
452.9657897949999
 30
0.0
 11
-171.7230987549999
 21
452.9657897949999
 31
0.0
  0
LINE
  5
111
330
10D
100
AcDbEntity
  8
PLAIN_
  6
SOLID
 62
     3
100
AcDbLine
 10
-171.8231048579999
 20
277.9657897949999
 30
0.0
 11
-171.8231048579999
 21
452.9657897949999
 31
0.0
  0
LINE
  5
112
330
10D
100
AcDbEntity
  8
PLAIN_
  6
SOLID
 62
     3
100
AcDbLine
 10
-172.9896545409999
 20
284.9657897949999
 30
0.0
 11
-171.8231048579999
 21
277.9657897949999
 31
0.0
  0
LINE
  5
113
330
10D
100
AcDbEntity
  8
PLAIN_
  6
SOLID
 62
     3
100
AcDbLine
 10
-171.8231048579999
 20
277.9657897949999
 30
0.0
 11
-170.656555176
 21
284.9657897949999
 31
0.0
  0
LINE
  5
114
330
10D
100
AcDbEntity
  8
PLAIN_
  6
SOLID
 62
     3
100
AcDbLine
 10
-170.656555176
 20
284.9657897949999
 30
0.0
 11
-172.9896545409999
 21
284.9657897949999
 31
0.0
  0
LINE
  5
115
330
10D
100
AcDbEntity
  8
PLAIN_
  6
SOLID
 62
     3
100
AcDbLine
 10
-171.8231048579999
 20
452.9657897949999
 30
0.0
 11
-171.8231048579999
 21
277.9657897949999
 31
0.0
  0
LINE
  5
116
330
10D
100
AcDbEntity
  8
PLAIN_
  6
SOLID
 62
     3
100
AcDbLine
 10
-170.656555176
 20
445.9657897949999
 30
0.0
 11
-171.8231048579999
 21
452.9657897949999
 31
0.0
  0
LINE
  5
117
330
10D
100
AcDbEntity
  8
PLAIN_
  6
SOLID
 62
     3
100
AcDbLine
 10
-171.8231048579999
 20
452.9657897949999
 30
0.0
 11
-172.9896545409999
 21
445.9657897949999
 31
0.0
  0
LINE
  5
118
330
10D
100
AcDbEntity
  8
PLAIN_
  6
SOLID
 62
     3
100
AcDbLine
 10
-172.9896545409999
 20
445.9657897949999
 30
0.0
 11
-170.656555176
 21
445.9657897949999
 31
0.0
  0
TEXT
  5
119
330
10D
100
AcDbEntity
  8
PLAIN_
  6
SOLID
 62
     3
100
AcDbText
 10
-175.323104858
 20
349.524230957
 30
0.0
 40
7.0
  1
%%c
 50
90.00000250399999
 41
0.6666154180000001
100
AcDbText
  0
TEXT
  5
11A
330
10D
100
AcDbEntity
  8
PLAIN_
  6
SOLID
 62
     3
100
AcDbText
 10
-175.323104858
 20
355.707550049
 30
0.0
 40
7.0
  1
175
 50
90.00000250399999
 41
0.7832308270000001
100
AcDbText
  0
TEXT
  5
11B
330
10D
100
AcDbEntity
  8
PLAIN_
  6
SOLID
 62
     3
100
AcDbText
 10
-175.323104858
 20
374.2575378419999
 30
0.0
 40
7.0
  1
f7
 50
90.00000250399999
 41
0.733230795
100
AcDbText
  0
ENDBLK
  5
11C
330
10D
100
AcDbEntity
  8
0
100
AcDbBlockEnd
  0
BLOCK
  5
11E
330
11D
100
AcDbEntity
  8
PLAIN_
100
AcDbBlockBegin
  2
*D18
 70
     1
 10
0.0
 20
0.0
 30
0.0
  3
*D18
  1

  0
LINE
  5
11F
330
11D
100
AcDbEntity
  8
PLAIN_
  6
SOLID
 62
     3
100
AcDbLine
 10
-462.5177612299999
 20
381.565795898
 30
0.0
 11
-462.5177612299999
 21
537.413391113
 31
0.0
  0
LINE
  5
120
330
11D
100
AcDbEntity
  8
PLAIN_
  6
SOLID
 62
     3
100
AcDbLine
 10
-206.6177368159999
 20
382.865692139
 30
0.0
 11
-206.6177368159999
 21
537.413391113
 31
0.0
  0
LINE
  5
121
330
11D
100
AcDbEntity
  8
PLAIN_
  6
SOLID
 62
     3
100
AcDbLine
 10
-462.5177612299999
 20
537.3134155269999
 30
0.0
 11
-206.6177368159999
 21
537.3134155269999
 31
0.0
  0
LINE
  5
122
330
11D
100
AcDbEntity
  8
PLAIN_
  6
SOLID
 62
     3
100
AcDbLine
 10
-455.51776123
 20
538.479980469
 30
0.0
 11
-462.5177612299999
 21
537.3134155269999
 31
0.0
  0
LINE
  5
123
330
11D
100
AcDbEntity
  8
PLAIN_
  6
SOLID
 62
     3
100
AcDbLine
 10
-462.5177612299999
 20
537.3134155269999
 30
0.0
 11
-455.51776123
 21
536.146850586
 31
0.0
  0
LINE
  5
124
330
11D
100
AcDbEntity
  8
PLAIN_
  6
SOLID
 62
     3
100
AcDbLine
 10
-455.51776123
 20
536.146850586
 30
0.0
 11
-455.51776123
 21
538.479980469
 31
0.0
  0
LINE
  5
125
330
11D
100
AcDbEntity
  8
PLAIN_
  6
SOLID
 62
     3
100
AcDbLine
 10
-206.6177368159999
 20
537.3134155269999
 30
0.0
 11
-462.5177612299999
 21
537.3134155269999
 31
0.0
  0
LINE
  5
126
330
11D
100
AcDbEntity
  8
PLAIN_
  6
SOLID
 62
     3
100
AcDbLine
 10
-213.6177368159999
 20
536.146850586
 30
0.0
 11
-206.6177368159999
 21
537.3134155269999
 31
0.0
  0
LINE
  5
127
330
11D
100
AcDbEntity
  8
PLAIN_
  6
SOLID
 62
     3
100
AcDbLine
 10
-206.6177368159999
 20
537.3134155269999
 30
0.0
 11
-213.6177368159999
 21
538.479980469
 31
0.0
  0
LINE
  5
128
330
11D
100
AcDbEntity
  8
PLAIN_
  6
SOLID
 62
     3
100
AcDbLine
 10
-213.6177368159999
 20
538.479980469
 30
0.0
 11
-213.6177368159999
 21
536.146850586
 31
0.0
  0
TEXT
  5
129
330
11D
100
AcDbEntity
  8
PLAIN_
  6
SOLID
 62
     3
100
AcDbText
 10
-347.871643066
 20
540.8134155269999
 30
0.0
 40
7.0
  1
256
 41
0.81102571
100
AcDbText
  0
ENDBLK
  5
12A
330
11D
100
AcDbEntity
  8
0
100
AcDbBlockEnd
  0
BLOCK
  5
12C
330
12B
100
AcDbEntity
  8
PLAIN_
100
AcDbBlockBegin
  2
*D19
 70
     1
 10
0.0
 20
0.0
 30
0.0
  3
*D19
  1

  0
LINE
  5
12D
330
12B
100
AcDbEntity
  8
PLAIN_
  6
SOLID
 62
     3
100
AcDbLine
 10
8.342706679999999
 20
249.671188354
 30
0.0
 11
126.4829101559999
 21
249.671188354
 31
0.0
  0
LINE
  5
12E
330
12B
100
AcDbEntity
  8
PLAIN_
  6
SOLID
 62
     3
100
AcDbLine
 10
129.6473388669999
 20
365.808837891
 30
0.0
 11
126.282913208
 21
365.808837891
 31
0.0
  0
LINE
  5
12F
330
12B
100
AcDbEntity
  8
PLAIN_
  6
SOLID
 62
     3
100
AcDbLine
 10
126.382911682
 20
249.671188354
 30
0.0
 11
126.382911682
 21
365.808837891
 31
0.0
  0
LINE
  5
130
330
12B
100
AcDbEntity
  8
PLAIN_
  6
SOLID
 62
     3
100
AcDbLine
 10
125.216362
 20
256.6711730959999
 30
0.0
 11
126.382911682
 21
249.671188354
 31
0.0
  0
LINE
  5
131
330
12B
100
AcDbEntity
  8
PLAIN_
  6
SOLID
 62
     3
100
AcDbLine
 10
126.382911682
 20
249.671188354
 30
0.0
 11
127.549461365
 21
256.6711730959999
 31
0.0
  0
LINE
  5
132
330
12B
100
AcDbEntity
  8
PLAIN_
  6
SOLID
 62
     3
100
AcDbLine
 10
127.549461365
 20
256.6711730959999
 30
0.0
 11
125.216362
 21
256.6711730959999
 31
0.0
  0
LINE
  5
133
330
12B
100
AcDbEntity
  8
PLAIN_
  6
SOLID
 62
     3
100
AcDbLine
 10
126.382911682
 20
365.808837891
 30
0.0
 11
126.382911682
 21
249.671188354
 31
0.0
  0
LINE
  5
134
330
12B
100
AcDbEntity
  8
PLAIN_
  6
SOLID
 62
     3
100
AcDbLine
 10
127.549461365
 20
358.808837891
 30
0.0
 11
126.382911682
 21
365.808837891
 31
0.0
  0
LINE
  5
135
330
12B
100
AcDbEntity
  8
PLAIN_
  6
SOLID
 62
     3
100
AcDbLine
 10
126.382911682
 20
365.808837891
 30
0.0
 11
125.216362
 21
358.808837891
 31
0.0
  0
LINE
  5
136
330
12B
100
AcDbEntity
  8
PLAIN_
  6
SOLID
 62
     3
100
AcDbLine
 10
125.216362
 20
358.808837891
 30
0.0
 11
127.549461365
 21
358.808837891
 31
0.0
  0
TEXT
  5
137
330
12B
100
AcDbEntity
  8
PLAIN_
  6
SOLID
 62
     3
100
AcDbText
 10
122.882911682
 20
293.427581787
 30
0.0
 40
7.0
  1
116
 50
90.00000250399999
 41
0.81102571
100
AcDbText
  0
ENDBLK
  5
138
330
12B
100
AcDbEntity
  8
0
100
AcDbBlockEnd
  0
BLOCK
  5
13A
330
139
100
AcDbEntity
  8
PLAIN_
100
AcDbBlockBegin
  2
*D20
 70
     1
 10
0.0
 20
0.0
 30
0.0
  3
*D20
  1

  0
LINE
  5
13B
330
139
100
AcDbEntity
  8
PLAIN_
  6
SOLID
 62
     3
100
AcDbLine
 10
-214.5177307129999
 20
470.366119385
 30
0.0
 11
-214.5177307129999
 21
463.030578613
 31
0.0
  0
LINE
  5
13C
330
139
100
AcDbEntity
  8
PLAIN_
  6
SOLID
 62
     3
100
AcDbLine
 10
-209.517730713
 20
453.065795898
 30
0.0
 11
-209.517730713
 21
463.23059082
 31
0.0
  0
LINE
  5
13D
330
139
100
AcDbEntity
  8
PLAIN_
  6
SOLID
 62
     3
100
AcDbLine
 10
-214.5177307129999
 20
463.130584717
 30
0.0
 11
-225.0177307129999
 21
463.130584717
 31
0.0
  0
LINE
  5
13E
330
139
100
AcDbEntity
  8
PLAIN_
  6
SOLID
 62
     3
100
AcDbLine
 10
-225.0177307129999
 20
463.130584717
 30
0.0
 11
-191.5950622559999
 21
463.130584717
 31
0.0
  0
LINE
  5
13F
330
139
100
AcDbEntity
  8
PLAIN_
  6
SOLID
 62
     3
100
AcDbLine
 10
-221.5177307129999
 20
461.9640197749999
 30
0.0
 11
-214.5177307129999
 21
463.130584717
 31
0.0
  0
LINE
  5
140
330
139
100
AcDbEntity
  8
PLAIN_
  6
SOLID
 62
     3
100
AcDbLine
 10
-214.5177307129999
 20
463.130584717
 30
0.0
 11
-221.5177307129999
 21
464.297149658
 31
0.0
  0
LINE
  5
141
330
139
100
AcDbEntity
  8
PLAIN_
  6
SOLID
 62
     3
100
AcDbLine
 10
-221.5177307129999
 20
464.297149658
 30
0.0
 11
-221.5177307129999
 21
461.9640197749999
 31
0.0
  0
LINE
  5
142
330
139
100
AcDbEntity
  8
PLAIN_
  6
SOLID
 62
     3
100
AcDbLine
 10
-209.517730713
 20
463.130584717
 30
0.0
 11
-191.5950622559999
 21
463.130584717
 31
0.0
  0
LINE
  5
143
330
139
100
AcDbEntity
  8
PLAIN_
  6
SOLID
 62
     3
100
AcDbLine
 10
-191.5950622559999
 20
463.130584717
 30
0.0
 11
-225.0177307129999
 21
463.130584717
 31
0.0
  0
LINE
  5
144
330
139
100
AcDbEntity
  8
PLAIN_
  6
SOLID
 62
     3
100
AcDbLine
 10
-202.5177307129999
 20
464.297149658
 30
0.0
 11
-209.517730713
 21
463.130584717
 31
0.0
  0
LINE
  5
145
330
139
100
AcDbEntity
  8
PLAIN_
  6
SOLID
 62
     3
100
AcDbLine
 10
-209.517730713
 20
463.130584717
 30
0.0
 11
-202.5177307129999
 21
461.9640197749999
 31
0.0
  0
LINE
  5
146
330
139
100
AcDbEntity
  8
PLAIN_
  6
SOLID
 62
     3
100
AcDbLine
 10
-202.5177307129999
 20
461.9640197749999
 30
0.0
 11
-202.5177307129999
 21
464.297149658
 31
0.0
  0
TEXT
  5
147
330
139
100
AcDbEntity
  8
PLAIN_
  6
SOLID
 62
     3
100
AcDbText
 10
-198.7693328859999
 20
466.630584717
 30
0.0
 40
7.0
  1
5
 41
0.583230768
100
AcDbText
  0
ENDBLK
  5
148
330
139
100
AcDbEntity
  8
0
100
AcDbBlockEnd
  0
BLOCK
  5
14A
330
149
100
AcDbEntity
  8
PLAIN_
100
AcDbBlockBegin
  2
*D21
 70
     1
 10
0.0
 20
0.0
 30
0.0
  3
*D21
  1

  0
LINE
  5
14B
330
149
100
AcDbEntity
  8
PLAIN_
  6
SOLID
 62
     3
100
AcDbLine
 10
-214.5177307129999
 20
470.5661315919999
 30
0.0
 11
-214.5177307129999
 21
497.6579895019999
 31
0.0
  0
LINE
  5
14C
330
149
100
AcDbEntity
  8
PLAIN_
  6
SOLID
 62
     3
100
AcDbLine
 10
-206.6177368159999
 20
382.865692139
 30
0.0
 11
-206.6177368159999
 21
497.6579895019999
 31
0.0
  0
LINE
  5
14D
330
149
100
AcDbEntity
  8
PLAIN_
  6
SOLID
 62
     3
100
AcDbLine
 10
-214.5177307129999
 20
497.557983398
 30
0.0
 11
-225.0177307129999
 21
497.557983398
 31
0.0
  0
LINE
  5
14E
330
149
100
AcDbEntity
  8
PLAIN_
  6
SOLID
 62
     3
100
AcDbLine
 10
-225.0177307129999
 20
497.557983398
 30
0.0
 11
-181.911651611
 21
497.557983398
 31
0.0
  0
LINE
  5
14F
330
149
100
AcDbEntity
  8
PLAIN_
  6
SOLID
 62
     3
100
AcDbLine
 10
-221.5177307129999
 20
496.391418457
 30
0.0
 11
-214.5177307129999
 21
497.557983398
 31
0.0
  0
LINE
  5
150
330
149
100
AcDbEntity
  8
PLAIN_
  6
SOLID
 62
     3
100
AcDbLine
 10
-214.5177307129999
 20
497.557983398
 30
0.0
 11
-221.5177307129999
 21
498.72454834
 31
0.0
  0
LINE
  5
151
330
149
100
AcDbEntity
  8
PLAIN_
  6
SOLID
 62
     3
100
AcDbLine
 10
-221.5177307129999
 20
498.72454834
 30
0.0
 11
-221.5177307129999
 21
496.391418457
 31
0.0
  0
LINE
  5
152
330
149
100
AcDbEntity
  8
PLAIN_
  6
SOLID
 62
     3
100
AcDbLine
 10
-206.6177368159999
 20
497.557983398
 30
0.0
 11
-181.911651611
 21
497.557983398
 31
0.0
  0
LINE
  5
153
330
149
100
AcDbEntity
  8
PLAIN_
  6
SOLID
 62
     3
100
AcDbLine
 10
-181.911651611
 20
497.557983398
 30
0.0
 11
-225.0177307129999
 21
497.557983398
 31
0.0
  0
LINE
  5
154
330
149
100
AcDbEntity
  8
PLAIN_
  6
SOLID
 62
     3
100
AcDbLine
 10
-199.6177368159999
 20
498.72454834
 30
0.0
 11
-206.6177368159999
 21
497.557983398
 31
0.0
  0
LINE
  5
155
330
149
100
AcDbEntity
  8
PLAIN_
  6
SOLID
 62
     3
100
AcDbLine
 10
-206.6177368159999
 20
497.557983398
 30
0.0
 11
-199.6177368159999
 21
496.391418457
 31
0.0
  0
LINE
  5
156
330
149
100
AcDbEntity
  8
PLAIN_
  6
SOLID
 62
     3
100
AcDbLine
 10
-199.6177368159999
 20
496.391418457
 30
0.0
 11
-199.6177368159999
 21
498.72454834
 31
0.0
  0
TEXT
  5
157
330
149
100
AcDbEntity
  8
PLAIN_
  6
SOLID
 62
     3
100
AcDbText
 10
-189.599639893
 20
501.057983398
 30
0.0
 40
7.0
  1
8
 41
0.6566153940000001
100
AcDbText
  0
ENDBLK
  5
158
330
149
100
AcDbEntity
  8
0
100
AcDbBlockEnd
  0
BLOCK
  5
15A
330
159
100
AcDbEntity
  8
PLAIN_
100
AcDbBlockBegin
  2
*D22
 70
     1
 10
0.0
 20
0.0
 30
0.0
  3
*D22
  1

  0
LINE
  5
15B
330
159
100
AcDbEntity
  8
PLAIN_
  6
SOLID
 62
     3
100
AcDbLine
 10
-208.5180053709999
 20
342.965698242
 30
0.0
 11
-188.087203979
 21
342.965698242
 31
0.0
  0
LINE
  5
15C
330
159
100
AcDbEntity
  8
PLAIN_
  6
SOLID
 62
     3
100
AcDbLine
 10
-208.5180053709999
 20
387.9656982419999
 30
0.0
 11
-188.087203979
 21
387.9656982419999
 31
0.0
  0
LINE
  5
15D
330
159
100
AcDbEntity
  8
PLAIN_
  6
SOLID
 62
     3
100
AcDbLine
 10
-188.1872100829999
 20
342.965698242
 30
0.0
 11
-188.1872100829999
 21
387.9656982419999
 31
0.0
  0
LINE
  5
15E
330
159
100
AcDbEntity
  8
PLAIN_
  6
SOLID
 62
     3
100
AcDbLine
 10
-189.3537597659999
 20
349.9656982419999
 30
0.0
 11
-188.1872100829999
 21
342.965698242
 31
0.0
  0
LINE
  5
15F
330
159
100
AcDbEntity
  8
PLAIN_
  6
SOLID
 62
     3
100
AcDbLine
 10
-188.1872100829999
 20
342.965698242
 30
0.0
 11
-187.0206604
 21
349.9656982419999
 31
0.0
  0
LINE
  5
160
330
159
100
AcDbEntity
  8
PLAIN_
  6
SOLID
 62
     3
100
AcDbLine
 10
-187.0206604
 20
349.9656982419999
 30
0.0
 11
-189.3537597659999
 21
349.9656982419999
 31
0.0
  0
LINE
  5
161
330
159
100
AcDbEntity
  8
PLAIN_
  6
SOLID
 62
     3
100
AcDbLine
 10
-188.1872100829999
 20
387.9656982419999
 30
0.0
 11
-188.1872100829999
 21
342.965698242
 31
0.0
  0
LINE
  5
162
330
159
100
AcDbEntity
  8
PLAIN_
  6
SOLID
 62
     3
100
AcDbLine
 10
-187.0206604
 20
380.9656982419999
 30
0.0
 11
-188.1872100829999
 21
387.9656982419999
 31
0.0
  0
LINE
  5
163
330
159
100
AcDbEntity
  8
PLAIN_
  6
SOLID
 62
     3
100
AcDbLine
 10
-188.1872100829999
 20
387.9656982419999
 30
0.0
 11
-189.3537597659999
 21
380.9656982419999
 31
0.0
  0
LINE
  5
164
330
159
100
AcDbEntity
  8
PLAIN_
  6
SOLID
 62
     3
100
AcDbLine
 10
-189.3537597659999
 20
380.9656982419999
 30
0.0
 11
-187.0206604
 21
380.9656982419999
 31
0.0
  0
TEXT
  5
165
330
159
100
AcDbEntity
  8
PLAIN_
  6
SOLID
 62
     3
100
AcDbText
 10
-191.687210083
 20
357.6303710939999
 30
0.0
 40
7.0
  1
%%c
 50
90.00000250399999
 41
0.6666154180000001
100
AcDbText
  0
TEXT
  5
166
330
159
100
AcDbEntity
  8
PLAIN_
  6
SOLID
 62
     3
100
AcDbText
 10
-191.687210083
 20
363.8136901859999
 30
0.0
 40
7.0
  1
45
 50
90.00000250399999
 41
0.733230795
100
AcDbText
  0
ENDBLK
  5
167
330
159
100
AcDbEntity
  8
0
100
AcDbBlockEnd
  0
BLOCK
  5
169
330
168
100
AcDbEntity
  8
PLAIN_
100
AcDbBlockBegin
  2
*D23
 70
     1
 10
0.0
 20
0.0
 30
0.0
  3
*D23
  1

  0
LINE
  5
16A
330
168
100
AcDbEntity
  8
PLAIN_
  6
SOLID
 62
     3
100
AcDbLine
 10
-208.0033874509999
 20
260.4657897949999
 30
0.0
 11
-157.696716309
 21
260.4657897949999
 31
0.0
  0
LINE
  5
16B
330
168
100
AcDbEntity
  8
PLAIN_
  6
SOLID
 62
     3
100
AcDbLine
 10
-157.796722412
 20
260.4657897949999
 30
0.0
 11
-157.796722412
 21
365.565795898
 31
0.0
  0
LINE
  5
16C
330
168
100
AcDbEntity
  8
PLAIN_
  6
SOLID
 62
     3
100
AcDbLine
 10
-158.963272095
 20
267.4657897949999
 30
0.0
 11
-157.796722412
 21
260.4657897949999
 31
0.0
  0
LINE
  5
16D
330
168
100
AcDbEntity
  8
PLAIN_
  6
SOLID
 62
     3
100
AcDbLine
 10
-157.796722412
 20
260.4657897949999
 30
0.0
 11
-156.630172729
 21
267.4657897949999
 31
0.0
  0
LINE
  5
16E
330
168
100
AcDbEntity
  8
PLAIN_
  6
SOLID
 62
     3
100
AcDbLine
 10
-156.630172729
 20
267.4657897949999
 30
0.0
 11
-158.963272095
 21
267.4657897949999
 31
0.0
  0
LINE
  5
16F
330
168
100
AcDbEntity
  8
PLAIN_
  6
SOLID
 62
     3
100
AcDbLine
 10
-157.796722412
 20
365.4657897949999
 30
0.0
 11
-157.796722412
 21
260.4657897949999
 31
0.0
  0
LINE
  5
170
330
168
100
AcDbEntity
  8
PLAIN_
  6
SOLID
 62
     3
100
AcDbLine
 10
-157.796722412
 20
260.4657897949999
 30
0.0
 11
-157.796722412
 21
365.565795898
 31
0.0
  0
TEXT
  5
171
330
168
100
AcDbEntity
  8
PLAIN_
  6
SOLID
 62
     3
100
AcDbText
 10
-161.296722412
 20
308.9533386229999
 30
0.0
 40
7.0
  1
%%c
 50
90.00000250399999
 41
0.6666154180000001
100
AcDbText
  0
TEXT
  5
172
330
168
100
AcDbEntity
  8
PLAIN_
  6
SOLID
 62
     3
100
AcDbText
 10
-161.296722412
 20
315.136657715
 30
0.0
 40
7.0
  1
210
 50
90.00000250399999
 41
0.7832308270000001
100
AcDbText
  0
ENDBLK
  5
173
330
168
100
AcDbEntity
  8
0
100
AcDbBlockEnd
  0
BLOCK
  5
175
330
174
100
AcDbEntity
  8
PLAIN_
100
AcDbBlockBegin
  2
*D24
 70
     1
 10
0.0
 20
0.0
 30
0.0
  3
*D24
  1

  0
LINE
  5
176
330
174
100
AcDbEntity
  8
PLAIN_
  6
SOLID
 62
     3
100
AcDbLine
 10
-378.517730713
 20
303.865783691
 30
0.0
 11
-378.517730713
 21
263.274719238
 31
0.0
  0
LINE
  5
177
330
174
100
AcDbEntity
  8
PLAIN_
  6
SOLID
 62
     3
100
AcDbLine
 10
-349.518035889
 20
268.7287292479999
 30
0.0
 11
-349.518035889
 21
263.274719238
 31
0.0
  0
LINE
  5
178
330
174
100
AcDbEntity
  8
PLAIN_
  6
SOLID
 62
     3
100
AcDbLine
 10
-378.517730713
 20
263.374725342
 30
0.0
 11
-349.518035889
 21
263.374725342
 31
0.0
  0
LINE
  5
179
330
174
100
AcDbEntity
  8
PLAIN_
  6
SOLID
 62
     3
100
AcDbLine
 10
-371.517730713
 20
264.5412902829999
 30
0.0
 11
-378.517730713
 21
263.374725342
 31
0.0
  0
LINE
  5
17A
330
174
100
AcDbEntity
  8
PLAIN_
  6
SOLID
 62
     3
100
AcDbLine
 10
-378.517730713
 20
263.374725342
 30
0.0
 11
-371.517730713
 21
262.2081603999999
 31
0.0
  0
LINE
  5
17B
330
174
100
AcDbEntity
  8
PLAIN_
  6
SOLID
 62
     3
100
AcDbLine
 10
-371.517730713
 20
262.2081603999999
 30
0.0
 11
-371.517730713
 21
264.5412902829999
 31
0.0
  0
LINE
  5
17C
330
174
100
AcDbEntity
  8
PLAIN_
  6
SOLID
 62
     3
100
AcDbLine
 10
-349.518035889
 20
263.374725342
 30
0.0
 11
-378.517730713
 21
263.374725342
 31
0.0
  0
LINE
  5
17D
330
174
100
AcDbEntity
  8
PLAIN_
  6
SOLID
 62
     3
100
AcDbLine
 10
-356.518035889
 20
262.2081603999999
 30
0.0
 11
-349.518035889
 21
263.374725342
 31
0.0
  0
LINE
  5
17E
330
174
100
AcDbEntity
  8
PLAIN_
  6
SOLID
 62
     3
100
AcDbLine
 10
-349.518035889
 20
263.374725342
 30
0.0
 11
-356.518035889
 21
264.5412902829999
 31
0.0
  0
LINE
  5
17F
330
174
100
AcDbEntity
  8
PLAIN_
  6
SOLID
 62
     3
100
AcDbLine
 10
-356.518035889
 20
264.5412902829999
 30
0.0
 11
-356.518035889
 21
262.2081603999999
 31
0.0
  0
TEXT
  5
180
330
174
100
AcDbEntity
  8
PLAIN_
  6
SOLID
 62
     3
100
AcDbText
 10
-369.3892822269999
 20
266.874725342
 30
0.0
 40
7.0
  1
29
 41
0.733230795
100
AcDbText
  0
ENDBLK
  5
181
330
174
100
AcDbEntity
  8
0
100
AcDbBlockEnd
  0
BLOCK
  5
183
330
182
100
AcDbEntity
  8
PLAIN_
100
AcDbBlockBegin
  2
*D25
 70
     1
 10
0.0
 20
0.0
 30
0.0
  3
*D25
  1

  0
LINE
  5
184
330
182
100
AcDbEntity
  8
PLAIN_
  6
SOLID
 62
     3
100
AcDbLine
 10
-426.517730713
 20
297.3657836909999
 30
0.0
 11
-426.517730713
 21
218.004821777
 31
0.0
  0
LINE
  5
185
330
182
100
AcDbEntity
  8
PLAIN_
  6
SOLID
 62
     3
100
AcDbLine
 10
-214.5177307129999
 20
248.8657836909999
 30
0.0
 11
-214.5177307129999
 21
218.004821777
 31
0.0
  0
LINE
  5
186
330
182
100
AcDbEntity
  8
PLAIN_
  6
SOLID
 62
     3
100
AcDbLine
 10
-426.517730713
 20
218.1048278809999
 30
0.0
 11
-214.5177307129999
 21
218.1048278809999
 31
0.0
  0
LINE
  5
187
330
182
100
AcDbEntity
  8
PLAIN_
  6
SOLID
 62
     3
100
AcDbLine
 10
-419.517730713
 20
219.271377563
 30
0.0
 11
-426.517730713
 21
218.1048278809999
 31
0.0
  0
LINE
  5
188
330
182
100
AcDbEntity
  8
PLAIN_
  6
SOLID
 62
     3
100
AcDbLine
 10
-426.517730713
 20
218.1048278809999
 30
0.0
 11
-419.517730713
 21
216.938278198
 31
0.0
  0
LINE
  5
189
330
182
100
AcDbEntity
  8
PLAIN_
  6
SOLID
 62
     3
100
AcDbLine
 10
-419.517730713
 20
216.938278198
 30
0.0
 11
-419.517730713
 21
219.271377563
 31
0.0
  0
LINE
  5
18A
330
182
100
AcDbEntity
  8
PLAIN_
  6
SOLID
 62
     3
100
AcDbLine
 10
-214.5177307129999
 20
218.1048278809999
 30
0.0
 11
-426.517730713
 21
218.1048278809999
 31
0.0
  0
LINE
  5
18B
330
182
100
AcDbEntity
  8
PLAIN_
  6
SOLID
 62
     3
100
AcDbLine
 10
-221.5177307129999
 20
216.938278198
 30
0.0
 11
-214.5177307129999
 21
218.1048278809999
 31
0.0
  0
LINE
  5
18C
330
182
100
AcDbEntity
  8
PLAIN_
  6
SOLID
 62
     3
100
AcDbLine
 10
-214.5177307129999
 20
218.1048278809999
 30
0.0
 11
-221.5177307129999
 21
219.271377563
 31
0.0
  0
LINE
  5
18D
330
182
100
AcDbEntity
  8
PLAIN_
  6
SOLID
 62
     3
100
AcDbLine
 10
-221.5177307129999
 20
219.271377563
 30
0.0
 11
-221.5177307129999
 21
216.938278198
 31
0.0
  0
TEXT
  5
18E
330
182
100
AcDbEntity
  8
PLAIN_
  6
SOLID
 62
     3
100
AcDbText
 10
-320.0113830569999
 20
221.6048278809999
 30
0.0
 40
7.0
  1
212
 41
0.7832308270000001
100
AcDbText
  0
ENDBLK
  5
18F
330
182
100
AcDbEntity
  8
0
100
AcDbBlockEnd
  0
BLOCK
  5
191
330
190
100
AcDbEntity
  8
PLAIN_
100
AcDbBlockBegin
  2
*D26
 70
     1
 10
0.0
 20
0.0
 30
0.0
  3
*D26
  1

  0
LINE
  5
192
330
190
100
AcDbEntity
  8
PLAIN_
  6
SOLID
 62
     3
100
AcDbLine
 10
-229.5177307129999
 20
251.6805725099999
 30
0.0
 11
-229.5177307129999
 21
230.0811004639999
 31
0.0
  0
LINE
  5
193
330
190
100
AcDbEntity
  8
PLAIN_
  6
SOLID
 62
     3
100
AcDbLine
 10
-214.5177307129999
 20
248.8657836909999
 30
0.0
 11
-214.5177307129999
 21
230.0811004639999
 31
0.0
  0
LINE
  5
194
330
190
100
AcDbEntity
  8
PLAIN_
  6
SOLID
 62
     3
100
AcDbLine
 10
-229.5177307129999
 20
230.1811065669999
 30
0.0
 11
-249.749755859
 21
230.1811065669999
 31
0.0
  0
LINE
  5
195
330
190
100
AcDbEntity
  8
PLAIN_
  6
SOLID
 62
     3
100
AcDbLine
 10
-249.749755859
 20
230.1811065669999
 30
0.0
 11
-204.017730713
 21
230.1811065669999
 31
0.0
  0
LINE
  5
196
330
190
100
AcDbEntity
  8
PLAIN_
  6
SOLID
 62
     3
100
AcDbLine
 10
-236.517730713
 20
229.0145568849999
 30
0.0
 11
-229.5177307129999
 21
230.1811065669999
 31
0.0
  0
LINE
  5
197
330
190
100
AcDbEntity
  8
PLAIN_
  6
SOLID
 62
     3
100
AcDbLine
 10
-229.5177307129999
 20
230.1811065669999
 30
0.0
 11
-236.517730713
 21
231.34765625
 31
0.0
  0
LINE
  5
198
330
190
100
AcDbEntity
  8
PLAIN_
  6
SOLID
 62
     3
100
AcDbLine
 10
-236.517730713
 20
231.34765625
 30
0.0
 11
-236.517730713
 21
229.0145568849999
 31
0.0
  0
LINE
  5
199
330
190
100
AcDbEntity
  8
PLAIN_
  6
SOLID
 62
     3
100
AcDbLine
 10
-214.5177307129999
 20
230.1811065669999
 30
0.0
 11
-204.017730713
 21
230.1811065669999
 31
0.0
  0
LINE
  5
19A
330
190
100
AcDbEntity
  8
PLAIN_
  6
SOLID
 62
     3
100
AcDbLine
 10
-204.017730713
 20
230.1811065669999
 30
0.0
 11
-249.749755859
 21
230.1811065669999
 31
0.0
  0
LINE
  5
19B
330
190
100
AcDbEntity
  8
PLAIN_
  6
SOLID
 62
     3
100
AcDbLine
 10
-207.517730713
 20
231.34765625
 30
0.0
 11
-214.5177307129999
 21
230.1811065669999
 31
0.0
  0
LINE
  5
19C
330
190
100
AcDbEntity
  8
PLAIN_
  6
SOLID
 62
     3
100
AcDbLine
 10
-214.5177307129999
 20
230.1811065669999
 30
0.0
 11
-207.517730713
 21
229.0145568849999
 31
0.0
  0
LINE
  5
19D
330
190
100
AcDbEntity
  8
PLAIN_
  6
SOLID
 62
     3
100
AcDbLine
 10
-207.517730713
 20
229.0145568849999
 30
0.0
 11
-207.517730713
 21
231.34765625
 31
0.0
  0
TEXT
  5
19E
330
190
100
AcDbEntity
  8
PLAIN_
  6
SOLID
 62
     3
100
AcDbText
 10
-246.6580963129999
 20
233.681106567
 30
0.0
 40
7.0
  1
15
 41
0.733230795
100
AcDbText
  0
ENDBLK
  5
19F
330
190
100
AcDbEntity
  8
0
100
AcDbBlockEnd
  0
BLOCK
  5
1A1
330
1A0
100
AcDbEntity
  8
PLAIN_
100
AcDbBlockBegin
  2
*D27
 70
     1
 10
0.0
 20
0.0
 30
0.0
  3
*D27
  1

  0
LINE
  5
1A2
330
1A0
100
AcDbEntity
  8
PLAIN_
  6
SOLID
 62
     3
100
AcDbLine
 10
-345.617736816
 20
452.9657897949999
 30
0.0
 11
-489.476654053
 21
452.9657897949999
 31
0.0
  0
LINE
  5
1A3
330
1A0
100
AcDbEntity
  8
PLAIN_
  6
SOLID
 62
     3
100
AcDbLine
 10
-489.3766479489999
 20
365.4657897949999
 30
0.0
 11
-489.3766479489999
 21
452.9657897949999
 31
0.0
  0
LINE
  5
1A4
330
1A0
100
AcDbEntity
  8
PLAIN_
  6
SOLID
 62
     3
100
AcDbLine
 10
-489.3766479489999
 20
452.9657897949999
 30
0.0
 11
-489.3766479489999
 21
365.3657836909999
 31
0.0
  0
LINE
  5
1A5
330
1A0
100
AcDbEntity
  8
PLAIN_
  6
SOLID
 62
     3
100
AcDbLine
 10
-489.3766479489999
 20
452.9657897949999
 30
0.0
 11
-489.3766479489999
 21
365.3657836909999
 31
0.0
  0
LINE
  5
1A6
330
1A0
100
AcDbEntity
  8
PLAIN_
  6
SOLID
 62
     3
100
AcDbLine
 10
-488.210083008
 20
445.9657897949999
 30
0.0
 11
-489.3766479489999
 21
452.9657897949999
 31
0.0
  0
LINE
  5
1A7
330
1A0
100
AcDbEntity
  8
PLAIN_
  6
SOLID
 62
     3
100
AcDbLine
 10
-489.3766479489999
 20
452.9657897949999
 30
0.0
 11
-490.543212891
 21
445.9657897949999
 31
0.0
  0
LINE
  5
1A8
330
1A0
100
AcDbEntity
  8
PLAIN_
  6
SOLID
 62
     3
100
AcDbLine
 10
-490.543212891
 20
445.9657897949999
 30
0.0
 11
-488.210083008
 21
445.9657897949999
 31
0.0
  0
TEXT
  5
1A9
330
1A0
100
AcDbEntity
  8
PLAIN_
  6
SOLID
 62
     3
100
AcDbText
 10
-492.876647949
 20
388.698028564
 30
0.0
 40
7.0
  1
%%c
 50
90.00000250399999
 41
0.6666154180000001
100
AcDbText
  0
TEXT
  5
1AA
330
1A0
100
AcDbEntity
  8
PLAIN_
  6
SOLID
 62
     3
100
AcDbText
 10
-492.876647949
 20
394.881347656
 30
0.0
 40
7.0
  1
175
 50
90.00000250399999
 41
0.7832308270000001
100
AcDbText
  0
TEXT
  5
1AB
330
1A0
100
AcDbEntity
  8
PLAIN_
  6
SOLID
 62
     3
100
AcDbText
 10
-492.876647949
 20
413.431335449
 30
0.0
 40
7.0
  1
f7
 50
90.00000250399999
 41
0.733230795
100
AcDbText
  0
ENDBLK
  5
1AC
330
1A0
100
AcDbEntity
  8
0
100
AcDbBlockEnd
  0
BLOCK
  5
1AE
330
1AD
100
AcDbEntity
  8
PLAIN_
100
AcDbBlockBegin
  2
*U28
 70
     1
 10
0.0
 20
0.0
 30
0.0
  3
*U28
  1

  0
LINE
  5
1AF
330
1AD
100
AcDbEntity
  8
PLAIN_
  6
SOLID
 62
     3
100
AcDbLine
 10
-314.939056396
 20
267.565856934
 30
0.0
 11
-312.8177490229999
 21
269.687164307
 31
0.0
  0
LINE
  5
1B0
330
1AD
100
AcDbEntity
  8
PLAIN_
  6
SOLID
 62
     3
100
AcDbLine
 10
-312.5391235349999
 20
269.9657897949999
 30
0.0
 11
-311.51776123
 21
270.9871521
 31
0.0
  0
LINE
  5
1B1
330
1AD
100
AcDbEntity
  8
PLAIN_
  6
SOLID
 62
     3
100
AcDbLine
 10
-311.517730713
 20
275.2297973629999
 30
0.0
 11
-319.181732178
 21
267.5658264159999
 31
0.0
  0
LINE
  5
1B2
330
1AD
100
AcDbEntity
  8
PLAIN_
  6
SOLID
 62
     3
100
AcDbLine
 10
-323.4243774409999
 20
267.5658264159999
 30
0.0
 11
-314.2824707029999
 21
276.7077026369999
 31
0.0
  0
LINE
  5
1B3
330
1AD
100
AcDbEntity
  8
PLAIN_
  6
SOLID
 62
     3
100
AcDbLine
 10
-318.614440918
 20
276.618408203
 30
0.0
 11
-324.517730713
 21
270.7150878909999
 31
0.0
  0
LINE
  5
1B4
330
1AD
100
AcDbEntity
  8
PLAIN_
  6
SOLID
 62
     3
100
AcDbLine
 10
-328.009643555
 20
271.4658203129999
 30
0.0
 11
-323.642181396
 21
275.833312988
 31
0.0
  0
LINE
  5
1B5
330
1AD
100
AcDbEntity
  8
PLAIN_
  6
SOLID
 62
     3
100
AcDbLine
 10
-328.466064453
 20
275.2520751949999
 30
0.0
 11
-332.2522888179999
 21
271.4658203129999
 31
0.0
  0
LINE
  5
1B6
330
1AD
100
AcDbEntity
  8
PLAIN_
  6
SOLID
 62
     3
100
AcDbLine
 10
-336.4949340819999
 20
271.4658203129999
 30
0.0
 11
-332.8514099119999
 21
275.1093749999999
 31
0.0
  0
LINE
  5
1B7
330
1AD
100
AcDbEntity
  8
PLAIN_
  6
SOLID
 62
     3
100
AcDbLine
 10
-336.79989624
 20
275.403503418
 30
0.0
 11
-340.7375793459999
 21
271.4658203129999
 31
0.0
  0
LINE
  5
1B8
330
1AD
100
AcDbEntity
  8
PLAIN_
  6
SOLID
 62
     3
100
AcDbLine
 10
-344.9802246089999
 20
271.4658203129999
 30
0.0
 11
-340.751373291
 21
275.694671631
 31
0.0
  0
LINE
  5
1B9
330
1AD
100
AcDbEntity
  8
PLAIN_
  6
SOLID
 62
     3
100
AcDbLine
 10
-344.9401245119999
 20
275.748535156
 30
0.0
 11
-345.517730713
 21
275.1709594729999
 31
0.0
  0
ENDBLK
  5
1BA
330
1AD
100
AcDbEntity
  8
0
100
AcDbBlockEnd
  0
BLOCK
  5
1BC
330
1BB
100
AcDbEntity
  8
PLAIN_
100
AcDbBlockBegin
  2
*D29
 70
     1
 10
0.0
 20
0.0
 30
0.0
  3
*D29
  1

  0
LINE
  5
1BD
330
1BB
100
AcDbEntity
  8
PLAIN_
  6
SOLID
 62
     3
100
AcDbLine
 10
-319.6177368159999
 20
244.4657897949999
 30
0.0
 11
-527.284240723
 21
244.4657897949999
 31
0.0
  0
LINE
  5
1BE
330
1BB
100
AcDbEntity
  8
PLAIN_
  6
SOLID
 62
     3
100
AcDbLine
 10
-319.6177368159999
 20
486.4657897949999
 30
0.0
 11
-527.284240723
 21
486.4657897949999
 31
0.0
  0
LINE
  5
1BF
330
1BB
100
AcDbEntity
  8
PLAIN_
  6
SOLID
 62
     3
100
AcDbLine
 10
-527.184265137
 20
244.4657897949999
 30
0.0
 11
-527.184265137
 21
486.4657897949999
 31
0.0
  0
LINE
  5
1C0
330
1BB
100
AcDbEntity
  8
PLAIN_
  6
SOLID
 62
     3
100
AcDbLine
 10
-528.350830078
 20
251.465789795
 30
0.0
 11
-527.184265137
 21
244.4657897949999
 31
0.0
  0
LINE
  5
1C1
330
1BB
100
AcDbEntity
  8
PLAIN_
  6
SOLID
 62
     3
100
AcDbLine
 10
-527.184265137
 20
244.4657897949999
 30
0.0
 11
-526.0177001949999
 21
251.465789795
 31
0.0
  0
LINE
  5
1C2
330
1BB
100
AcDbEntity
  8
PLAIN_
  6
SOLID
 62
     3
100
AcDbLine
 10
-526.0177001949999
 20
251.465789795
 30
0.0
 11
-528.350830078
 21
251.465789795
 31
0.0
  0
LINE
  5
1C3
330
1BB
100
AcDbEntity
  8
PLAIN_
  6
SOLID
 62
     3
100
AcDbLine
 10
-527.184265137
 20
486.4657897949999
 30
0.0
 11
-527.184265137
 21
244.4657897949999
 31
0.0
  0
LINE
  5
1C4
330
1BB
100
AcDbEntity
  8
PLAIN_
  6
SOLID
 62
     3
100
AcDbLine
 10
-526.0177001949999
 20
479.4657897949999
 30
0.0
 11
-527.184265137
 21
486.4657897949999
 31
0.0
  0
LINE
  5
1C5
330
1BB
100
AcDbEntity
  8
PLAIN_
  6
SOLID
 62
     3
100
AcDbLine
 10
-527.184265137
 20
486.4657897949999
 30
0.0
 11
-528.350830078
 21
479.4657897949999
 31
0.0
  0
LINE
  5
1C6
330
1BB
100
AcDbEntity
  8
PLAIN_
  6
SOLID
 62
     3
100
AcDbLine
 10
-528.350830078
 20
479.4657897949999
 30
0.0
 11
-526.0177001949999
 21
479.4657897949999
 31
0.0
  0
TEXT
  5
1C7
330
1BB
100
AcDbEntity
  8
PLAIN_
  6
SOLID
 62
     3
100
AcDbText
 10
-530.684265137
 20
338.8283996579999
 30
0.0
 40
7.0
  1
%%c
 50
90.00000250399999
 41
0.6666154180000001
100
AcDbText
  0
TEXT
  5
1C8
330
1BB
100
AcDbEntity
  8
PLAIN_
  6
SOLID
 62
     3
100
AcDbText
 10
-530.684265137
 20
345.01171875
 30
0.0
 40
7.0
  1
242
 50
90.00000250399999
 41
0.7832308270000001
100
AcDbText
  0
TEXT
  5
1C9
330
1BB
100
AcDbEntity
  8
PLAIN_
  6
SOLID
 62
     3
100
AcDbText
 10
-538.034240723
 20
365.661712646
 30
0.0
 40
4.900000095
  1
+0.2
 50
90.00000250399999
 41
0.808230793
100
AcDbText
  0
TEXT
  5
1CA
330
1BB
100
AcDbEntity
  8
PLAIN_
  6
SOLID
 62
     3
100
AcDbText
 10
-527.534240723
 20
365.661712646
 30
0.0
 40
4.900000095
  1
-0.0
 50
90.00000250399999
 41
0.808230793
100
AcDbText
  0
ENDBLK
  5
1CB
330
1BB
100
AcDbEntity
  8
0
100
AcDbBlockEnd
  0
BLOCK
  5
1CD
330
1CC
100
AcDbEntity
  8
PLAIN_
100
AcDbBlockBegin
  2
*D30
 70
     1
 10
0.0
 20
0.0
 30
0.0
  3
*D30
  1

  0
LINE
  5
1CE
330
1CC
100
AcDbEntity
  8
PLAIN_
  6
SOLID
 62
     3
100
AcDbLine
 10
-354.6177368159999
 20
260.465820313
 30
0.0
 11
-500.6432495119999
 21
260.465820313
 31
0.0
  0
LINE
  5
1CF
330
1CC
100
AcDbEntity
  8
PLAIN_
  6
SOLID
 62
     3
100
AcDbLine
 10
-500.543243408
 20
260.465820313
 30
0.0
 11
-500.543243408
 21
365.565795898
 31
0.0
  0
LINE
  5
1D0
330
1CC
100
AcDbEntity
  8
PLAIN_
  6
SOLID
 62
     3
100
AcDbLine
 10
-501.70980835
 20
267.4658203129999
 30
0.0
 11
-500.543243408
 21
260.465820313
 31
0.0
  0
LINE
  5
1D1
330
1CC
100
AcDbEntity
  8
PLAIN_
  6
SOLID
 62
     3
100
AcDbLine
 10
-500.543243408
 20
260.465820313
 30
0.0
 11
-499.376678467
 21
267.4658203129999
 31
0.0
  0
LINE
  5
1D2
330
1CC
100
AcDbEntity
  8
PLAIN_
  6
SOLID
 62
     3
100
AcDbLine
 10
-499.376678467
 20
267.4658203129999
 30
0.0
 11
-501.70980835
 21
267.4658203129999
 31
0.0
  0
LINE
  5
1D3
330
1CC
100
AcDbEntity
  8
PLAIN_
  6
SOLID
 62
     3
100
AcDbLine
 10
-500.543243408
 20
365.4657897949999
 30
0.0
 11
-500.543243408
 21
260.465820313
 31
0.0
  0
LINE
  5
1D4
330
1CC
100
AcDbEntity
  8
PLAIN_
  6
SOLID
 62
     3
100
AcDbLine
 10
-500.543243408
 20
260.465820313
 30
0.0
 11
-500.543243408
 21
365.565795898
 31
0.0
  0
TEXT
  5
1D5
330
1CC
100
AcDbEntity
  8
PLAIN_
  6
SOLID
 62
     3
100
AcDbText
 10
-504.043243408
 20
311.962615967
 30
0.0
 40
7.0
  1
%%c
 50
90.00000250399999
 41
0.6666154180000001
100
AcDbText
  0
TEXT
  5
1D6
330
1CC
100
AcDbEntity
  8
PLAIN_
  6
SOLID
 62
     3
100
AcDbText
 10
-504.043243408
 20
318.1459350589999
 30
0.0
 40
7.0
  1
210
 50
90.00000250399999
 41
0.7832308270000001
100
AcDbText
  0
ENDBLK
  5
1D7
330
1CC
100
AcDbEntity
  8
0
100
AcDbBlockEnd
  0
BLOCK
  5
1D9
330
1D8
100
AcDbEntity
  8
PLAIN_
100
AcDbBlockBegin
  2
*U31
 70
     1
 10
0.0
 20
0.0
 30
0.0
  3
*U31
  1

  0
LINE
  5
1DA
330
1D8
100
AcDbEntity
  8
PLAIN_
  6
SOLID
 62
     3
100
AcDbLine
 10
-314.639068604
 20
244.465805054
 30
0.0
 11
-312.1390686039999
 21
246.965805054
 31
0.0
  0
LINE
  5
1DB
330
1D8
100
AcDbEntity
  8
PLAIN_
  6
SOLID
 62
     3
100
AcDbLine
 10
-312.381713867
 20
250.9657897949999
 30
0.0
 11
-318.881713867
 21
244.465805054
 31
0.0
  0
LINE
  5
1DC
330
1D8
100
AcDbEntity
  8
PLAIN_
  6
SOLID
 62
     3
100
AcDbLine
 10
-322.1243591309999
 20
245.465805054
 30
0.0
 11
-314.224334717
 21
253.365814209
 31
0.0
  0
LINE
  5
1DD
330
1D8
100
AcDbEntity
  8
PLAIN_
  6
SOLID
 62
     3
100
AcDbLine
 10
-318.46697998
 20
253.365814209
 30
0.0
 11
-326.3670043949999
 21
245.465805054
 31
0.0
  0
LINE
  5
1DE
330
1D8
100
AcDbEntity
  8
PLAIN_
  6
SOLID
 62
     3
100
AcDbLine
 10
-330.6096496579999
 20
245.465805054
 30
0.0
 11
-326.6096191409999
 21
249.465820313
 31
0.0
  0
LINE
  5
1DF
330
1D8
100
AcDbEntity
  8
PLAIN_
  6
SOLID
 62
     3
100
AcDbLine
 10
-324.517730713
 20
251.55770874
 30
0.0
 11
-322.7096252439999
 21
253.365814209
 31
0.0
  0
LINE
  5
1E0
330
1D8
100
AcDbEntity
  8
PLAIN_
  6
SOLID
 62
     3
100
AcDbLine
 10
-330.852264404
 20
249.465820313
 30
0.0
 11
-334.8522949219999
 21
245.465805054
 31
0.0
  0
LINE
  5
1E1
330
1D8
100
AcDbEntity
  8
PLAIN_
  6
SOLID
 62
     3
100
AcDbLine
 10
-339.0949401859999
 20
245.465805054
 30
0.0
 11
-335.094909668
 21
249.465820313
 31
0.0
  0
LINE
  5
1E2
330
1D8
100
AcDbEntity
  8
PLAIN_
  6
SOLID
 62
     3
100
AcDbLine
 10
-339.3375549319999
 20
249.465820313
 30
0.0
 11
-343.337585449
 21
245.465789795
 31
0.0
  0
LINE
  5
1E3
330
1D8
100
AcDbEntity
  8
PLAIN_
  6
SOLID
 62
     3
100
AcDbLine
 10
-345.517730713
 20
247.5282745359999
 30
0.0
 11
-343.5802001949999
 21
249.465820313
 31
0.0
  0
ENDBLK
  5
1E4
330
1D8
100
AcDbEntity
  8
0
100
AcDbBlockEnd
  0
BLOCK
  5
1E6
330
1E5
100
AcDbEntity
  8
PLAIN_
100
AcDbBlockBegin
  2
*D32
 70
     1
 10
0.0
 20
0.0
 30
0.0
  3
*D32
  1

  0
LINE
  5
1E7
330
1E5
100
AcDbEntity
  8
PLAIN_
  6
SOLID
 62
     3
100
AcDbLine
 10
-362.6180419919999
 20
304.4657897949999
 30
0.0
 11
-471.547515869
 21
304.4657897949999
 31
0.0
  0
LINE
  5
1E8
330
1E5
100
AcDbEntity
  8
PLAIN_
  6
SOLID
 62
     3
100
AcDbLine
 10
-471.447509766
 20
304.4657897949999
 30
0.0
 11
-471.447509766
 21
365.4657897949999
 31
0.0
  0
LINE
  5
1E9
330
1E5
100
AcDbEntity
  8
PLAIN_
  6
SOLID
 62
     3
100
AcDbLine
 10
-472.6140747069999
 20
311.4657897949999
 30
0.0
 11
-471.447509766
 21
304.4657897949999
 31
0.0
  0
LINE
  5
1EA
330
1E5
100
AcDbEntity
  8
PLAIN_
  6
SOLID
 62
     3
100
AcDbLine
 10
-471.447509766
 20
304.4657897949999
 30
0.0
 11
-470.280944824
 21
311.4657897949999
 31
0.0
  0
LINE
  5
1EB
330
1E5
100
AcDbEntity
  8
PLAIN_
  6
SOLID
 62
     3
100
AcDbLine
 10
-470.280944824
 20
311.4657897949999
 30
0.0
 11
-472.6140747069999
 21
311.4657897949999
 31
0.0
  0
LINE
  5
1EC
330
1E5
100
AcDbEntity
  8
PLAIN_
  6
SOLID
 62
     3
100
AcDbLine
 10
-471.447509766
 20
365.4657897949999
 30
0.0
 11
-471.447509766
 21
304.4657897949999
 31
0.0
  0
LINE
  5
1ED
330
1E5
100
AcDbEntity
  8
PLAIN_
  6
SOLID
 62
     3
100
AcDbLine
 10
-470.280944824
 20
358.4657897949999
 30
0.0
 11
-471.447509766
 21
365.4657897949999
 31
0.0
  0
LINE
  5
1EE
330
1E5
100
AcDbEntity
  8
PLAIN_
  6
SOLID
 62
     3
100
AcDbLine
 10
-471.447509766
 20
365.4657897949999
 30
0.0
 11
-472.6140747069999
 21
358.4657897949999
 31
0.0
  0
LINE
  5
1EF
330
1E5
100
AcDbEntity
  8
PLAIN_
  6
SOLID
 62
     3
100
AcDbLine
 10
-472.6140747069999
 20
358.4657897949999
 30
0.0
 11
-470.280944824
 21
358.4657897949999
 31
0.0
  0
TEXT
  5
1F0
330
1E5
100
AcDbEntity
  8
PLAIN_
  6
SOLID
 62
     3
100
AcDbText
 10
-474.947509766
 20
333.4563293459999
 30
0.0
 40
7.0
  1
61
 50
90.00000250399999
 41
0.608230795
100
AcDbText
  0
ENDBLK
  5
1F1
330
1E5
100
AcDbEntity
  8
0
100
AcDbBlockEnd
  0
BLOCK
  5
1F3
330
1F2
100
AcDbEntity
  8
PLAIN_
100
AcDbBlockBegin
  2
*U33
 70
     1
 10
0.0
 20
0.0
 30
0.0
  3
*U33
  1

  0
LINE
  5
1F4
330
1F2
100
AcDbEntity
  8
PLAIN_
  6
SOLID
 62
     3
100
AcDbLine
 10
-211.3753662109999
 20
382.177124023
 30
0.0
 11
-177.34588623
 21
472.4861450199999
 31
0.0
  0
LINE
  5
1F5
330
1F2
100
AcDbEntity
  8
PLAIN_
  6
SOLID
 62
     3
100
AcDbLine
 10
-177.34588623
 20
472.4861450199999
 30
0.0
 11
-166.7589874269999
 21
472.4861450199999
 31
0.0
  0
LINE
  5
1F6
330
1F2
100
AcDbEntity
  8
PLAIN_
  6
SOLID
 62
     3
100
AcDbLine
 10
-209.9987335209999
 20
389.13885498
 30
0.0
 11
-211.3753662109999
 21
382.177124023
 31
0.0
  0
LINE
  5
1F7
330
1F2
100
AcDbEntity
  8
PLAIN_
  6
SOLID
 62
     3
100
AcDbLine
 10
-211.3753662109999
 20
382.177124023
 30
0.0
 11
-207.8154754639999
 21
388.316162109
 31
0.0
  0
LINE
  5
1F8
330
1F2
100
AcDbEntity
  8
PLAIN_
  6
SOLID
 62
     3
100
AcDbLine
 10
-207.8154754639999
 20
388.316162109
 30
0.0
 11
-209.9987335209999
 21
389.13885498
 31
0.0
  0
TEXT
  5
1F9
330
1F2
100
AcDbEntity
  8
PLAIN_
  6
SOLID
 62
     3
100
AcDbText
 10
-163.172454834
 20
472.4861145019999
 30
0.0
 40
7.0
  1
35x1.75x31
 41
0.6234080180000001
100
AcDbText
  0
TEXT
  5
1FA
330
1F2
100
AcDbEntity
  8
PLAIN_
  6
SOLID
 62
     3
100
AcDbText
 10
-163.172454834
 20
461.9861145019999
 30
0.0
 40
7.0
  1
DIN 5482
 41
0.748168741
100
AcDbText
  0
ENDBLK
  5
1FB
330
1F2
100
AcDbEntity
  8
0
100
AcDbBlockEnd
  0
BLOCK
  5
1FD
330
1FC
100
AcDbEntity
  8
PLAIN_
100
AcDbBlockBegin
  2
*D34
 70
     1
 10
0.0
 20
0.0
 30
0.0
  3
*D34
  1

  0
LINE
  5
1FE
330
1FC
100
AcDbEntity
  8
PLAIN_
  6
SOLID
 62
     3
100
AcDbLine
 10
-229.618011475
 20
347.365783691
 30
0.0
 11
-229.618011475
 21
311.577209473
 31
0.0
  0
LINE
  5
1FF
330
1FC
100
AcDbEntity
  8
PLAIN_
  6
SOLID
 62
     3
100
AcDbLine
 10
-206.6177368159999
 20
348.065887451
 30
0.0
 11
-206.6177368159999
 21
311.577209473
 31
0.0
  0
LINE
  5
200
330
1FC
100
AcDbEntity
  8
PLAIN_
  6
SOLID
 62
     3
100
AcDbLine
 10
-229.618011475
 20
311.6772155759999
 30
0.0
 11
-206.6177368159999
 21
311.6772155759999
 31
0.0
  0
LINE
  5
201
330
1FC
100
AcDbEntity
  8
PLAIN_
  6
SOLID
 62
     3
100
AcDbLine
 10
-222.6180114749999
 20
312.843780518
 30
0.0
 11
-229.618011475
 21
311.6772155759999
 31
0.0
  0
LINE
  5
202
330
1FC
100
AcDbEntity
  8
PLAIN_
  6
SOLID
 62
     3
100
AcDbLine
 10
-229.618011475
 20
311.6772155759999
 30
0.0
 11
-222.6180114749999
 21
310.5106506349999
 31
0.0
  0
LINE
  5
203
330
1FC
100
AcDbEntity
  8
PLAIN_
  6
SOLID
 62
     3
100
AcDbLine
 10
-222.6180114749999
 20
310.5106506349999
 30
0.0
 11
-222.6180114749999
 21
312.843780518
 31
0.0
  0
LINE
  5
204
330
1FC
100
AcDbEntity
  8
PLAIN_
  6
SOLID
 62
     3
100
AcDbLine
 10
-206.6177368159999
 20
311.6772155759999
 30
0.0
 11
-229.618011475
 21
311.6772155759999
 31
0.0
  0
LINE
  5
205
330
1FC
100
AcDbEntity
  8
PLAIN_
  6
SOLID
 62
     3
100
AcDbLine
 10
-213.6177368159999
 20
310.5106506349999
 30
0.0
 11
-206.6177368159999
 21
311.6772155759999
 31
0.0
  0
LINE
  5
206
330
1FC
100
AcDbEntity
  8
PLAIN_
  6
SOLID
 62
     3
100
AcDbLine
 10
-206.6177368159999
 20
311.6772155759999
 30
0.0
 11
-213.6177368159999
 21
312.843780518
 31
0.0
  0
LINE
  5
207
330
1FC
100
AcDbEntity
  8
PLAIN_
  6
SOLID
 62
     3
100
AcDbLine
 10
-213.6177368159999
 20
312.843780518
 30
0.0
 11
-213.6177368159999
 21
310.5106506349999
 31
0.0
  0
TEXT
  5
208
330
1FC
100
AcDbEntity
  8
PLAIN_
  6
SOLID
 62
     3
100
AcDbText
 10
-225.903961182
 20
315.1772155759999
 30
0.0
 40
7.0
  1
23
 41
0.733230795
100
AcDbText
  0
ENDBLK
  5
209
330
1FC
100
AcDbEntity
  8
0
100
AcDbBlockEnd
  0
BLOCK
  5
20B
330
20A
100
AcDbEntity
  8
PLAIN_
100
AcDbBlockBegin
  2
*D35
 70
     1
 10
0.0
 20
0.0
 30
0.0
  3
*D35
  1

  0
LINE
  5
20C
330
20A
100
AcDbEntity
  8
PLAIN_
  6
SOLID
 62
     3
100
AcDbLine
 10
-237.6180114749999
 20
348.8657836909999
 30
0.0
 11
-237.6180114749999
 21
330.7268676759999
 31
0.0
  0
LINE
  5
20D
330
20A
100
AcDbEntity
  8
PLAIN_
  6
SOLID
 62
     3
100
AcDbLine
 10
-229.618011475
 20
347.365783691
 30
0.0
 11
-229.618011475
 21
330.7268676759999
 31
0.0
  0
LINE
  5
20E
330
20A
100
AcDbEntity
  8
PLAIN_
  6
SOLID
 62
     3
100
AcDbLine
 10
-237.6180114749999
 20
330.826873779
 30
0.0
 11
-258.297393799
 21
330.826873779
 31
0.0
  0
LINE
  5
20F
330
20A
100
AcDbEntity
  8
PLAIN_
  6
SOLID
 62
     3
100
AcDbLine
 10
-258.297393799
 20
330.826873779
 30
0.0
 11
-219.118011475
 21
330.826873779
 31
0.0
  0
LINE
  5
210
330
20A
100
AcDbEntity
  8
PLAIN_
  6
SOLID
 62
     3
100
AcDbLine
 10
-244.618011475
 20
329.6603088379999
 30
0.0
 11
-237.6180114749999
 21
330.826873779
 31
0.0
  0
LINE
  5
211
330
20A
100
AcDbEntity
  8
PLAIN_
  6
SOLID
 62
     3
100
AcDbLine
 10
-237.6180114749999
 20
330.826873779
 30
0.0
 11
-244.618011475
 21
331.9934387209999
 31
0.0
  0
LINE
  5
212
330
20A
100
AcDbEntity
  8
PLAIN_
  6
SOLID
 62
     3
100
AcDbLine
 10
-244.618011475
 20
331.9934387209999
 30
0.0
 11
-244.618011475
 21
329.6603088379999
 31
0.0
  0
LINE
  5
213
330
20A
100
AcDbEntity
  8
PLAIN_
  6
SOLID
 62
     3
100
AcDbLine
 10
-229.618011475
 20
330.826873779
 30
0.0
 11
-219.118011475
 21
330.826873779
 31
0.0
  0
LINE
  5
214
330
20A
100
AcDbEntity
  8
PLAIN_
  6
SOLID
 62
     3
100
AcDbLine
 10
-219.118011475
 20
330.826873779
 30
0.0
 11
-258.297393799
 21
330.826873779
 31
0.0
  0
LINE
  5
215
330
20A
100
AcDbEntity
  8
PLAIN_
  6
SOLID
 62
     3
100
AcDbLine
 10
-222.6180114749999
 20
331.9934387209999
 30
0.0
 11
-229.618011475
 21
330.826873779
 31
0.0
  0
LINE
  5
216
330
20A
100
AcDbEntity
  8
PLAIN_
  6
SOLID
 62
     3
100
AcDbLine
 10
-229.618011475
 20
330.826873779
 30
0.0
 11
-222.6180114749999
 21
329.6603088379999
 31
0.0
  0
LINE
  5
217
330
20A
100
AcDbEntity
  8
PLAIN_
  6
SOLID
 62
     3
100
AcDbLine
 10
-222.6180114749999
 20
329.6603088379999
 30
0.0
 11
-222.6180114749999
 21
331.9934387209999
 31
0.0
  0
TEXT
  5
218
330
20A
100
AcDbEntity
  8
PLAIN_
  6
SOLID
 62
     3
100
AcDbText
 10
-255.205718994
 20
334.326873779
 30
0.0
 40
7.0
  1
8
 41
0.6566153940000001
100
AcDbText
  0
ENDBLK
  5
219
330
20A
100
AcDbEntity
  8
0
100
AcDbBlockEnd
  0
BLOCK
  5
21B
330
21A
100
AcDbEntity
  8
PLAIN_
100
AcDbBlockBegin
  2
*U36
 70
     1
 10
0.0
 20
0.0
 30
0.0
  3
*U36
  1

  0
LINE
  5
21C
330
21A
100
AcDbEntity
  8
PLAIN_
  6
SOLID
 62
     3
100
AcDbLine
 10
-431.022521973
 20
297.4978942869999
 30
0.0
 11
-461.2215576169999
 21
291.0088500979999
 31
0.0
  0
LINE
  5
21D
330
21A
100
AcDbEntity
  8
PLAIN_
  6
SOLID
 62
     3
100
AcDbLine
 10
-461.2215576169999
 20
291.0088500979999
 30
0.0
 11
-461.2215576169999
 21
286.014556885
 31
0.0
  0
LINE
  5
21E
330
21A
100
AcDbEntity
  8
PLAIN_
  6
SOLID
 62
     3
100
AcDbLine
 10
-437.621246338
 20
294.8868408199999
 30
0.0
 11
-431.022521973
 21
297.4978942869999
 31
0.0
  0
LINE
  5
21F
330
21A
100
AcDbEntity
  8
PLAIN_
  6
SOLID
 62
     3
100
AcDbLine
 10
-431.022521973
 20
297.4978942869999
 30
0.0
 11
-438.111358643
 21
297.16784668
 31
0.0
  0
LINE
  5
220
330
21A
100
AcDbEntity
  8
PLAIN_
  6
SOLID
 62
     3
100
AcDbLine
 10
-438.111358643
 20
297.16784668
 30
0.0
 11
-437.621246338
 21
294.8868408199999
 31
0.0
  0
TEXT
  5
221
330
21A
100
AcDbEntity
  8
PLAIN_
  6
SOLID
 62
     3
100
AcDbText
 10
-483.4686584469999
 20
273.0391845699999
 30
0.0
 40
7.0
  1
N%%d2 holes
 41
0.706257533
100
AcDbText
  0
TEXT
  5
222
330
21A
100
AcDbEntity
  8
PLAIN_
  6
SOLID
 62
     3
100
AcDbText
 10
-483.4686584469999
 20
262.5391845699999
 30
0.0
 40
7.0
  1
1" BSP
 41
0.7301778340000001
100
AcDbText
  0
ENDBLK
  5
223
330
21A
100
AcDbEntity
  8
0
100
AcDbBlockEnd
  0
BLOCK
  5
225
330
224
100
AcDbEntity
  8
PLAIN_
100
AcDbBlockBegin
  2
*U37
 70
     1
 10
0.0
 20
0.0
 30
0.0
  3
*U37
  1

  0
LINE
  5
226
330
224
100
AcDbEntity
  8
PLAIN_
  6
SOLID
 62
     3
100
AcDbLine
 10
25.41913414
 20
460.588348389
 30
0.0
 11
55.461437225
 21
523.007324219
 31
0.0
  0
LINE
  5
227
330
224
100
AcDbEntity
  8
PLAIN_
  6
SOLID
 62
     3
100
AcDbLine
 10
55.461437225
 20
523.007324219
 30
0.0
 11
32.46641922
 21
523.007324219
 31
0.0
  0
LINE
  5
228
330
224
100
AcDbEntity
  8
PLAIN_
  6
SOLID
 62
     3
100
AcDbLine
 10
27.403779984
 20
467.401733398
 30
0.0
 11
25.41913414
 21
460.588348389
 31
0.0
  0
LINE
  5
229
330
224
100
AcDbEntity
  8
PLAIN_
  6
SOLID
 62
     3
100
AcDbLine
 10
25.41913414
 20
460.588348389
 30
0.0
 11
29.50605583199999
 21
466.389892578
 31
0.0
  0
LINE
  5
22A
330
224
100
AcDbEntity
  8
PLAIN_
  6
SOLID
 62
     3
100
AcDbLine
 10
29.50605583199999
 20
466.389892578
 30
0.0
 11
27.403779984
 21
467.401733398
 31
0.0
  0
TEXT
  5
22B
330
224
100
AcDbEntity
  8
PLAIN_
  6
SOLID
 62
     3
100
AcDbText
 10
-16.08473014799999
 20
523.007324219
 30
0.0
 40
7.0
  1
N%%d2 holes
 41
0.706257533
100
AcDbText
  0
TEXT
  5
22C
330
224
100
AcDbEntity
  8
PLAIN_
  6
SOLID
 62
     3
100
AcDbText
 10
-16.08473014799999
 20
512.507324219
 30
0.0
 40
7.0
  1
1" BSP
 41
0.7301778340000001
100
AcDbText
  0
ENDBLK
  5
22D
330
224
100
AcDbEntity
  8
0
100
AcDbBlockEnd
  0
BLOCK
  5
22F
330
22E
100
AcDbEntity
  8
PLAIN_
100
AcDbBlockBegin
  2
*U38
 70
     1
 10
0.0
 20
0.0
 30
0.0
  3
*U38
  1

  0
LINE
  5
230
330
22E
100
AcDbEntity
  8
PLAIN_
  6
SOLID
 62
     3
100
AcDbLine
 10
-311.517730713
 20
246.5870971679999
 30
0.0
 11
-309.3963928219999
 21
244.465774536
 31
0.0
  0
LINE
  5
231
330
22E
100
AcDbEntity
  8
PLAIN_
  6
SOLID
 62
     3
100
AcDbLine
 10
-305.1537475589999
 20
244.465774536
 30
0.0
 11
-311.517730713
 21
250.829742432
 31
0.0
  0
LINE
  5
232
330
22E
100
AcDbEntity
  8
PLAIN_
  6
SOLID
 62
     3
100
AcDbLine
 10
-310.911132813
 20
254.465789795
 30
0.0
 11
-300.9111022949999
 21
244.465774536
 31
0.0
  0
LINE
  5
233
330
22E
100
AcDbEntity
  8
PLAIN_
  6
SOLID
 62
     3
100
AcDbLine
 10
-296.668487549
 20
244.465774536
 30
0.0
 11
-306.668487549
 21
254.465789795
 31
0.0
  0
LINE
  5
234
330
22E
100
AcDbEntity
  8
PLAIN_
  6
SOLID
 62
     3
100
AcDbLine
 10
-302.425842285
 20
254.465789795
 30
0.0
 11
-293.3643493649999
 21
245.4042816159999
 31
0.0
  0
LINE
  5
235
330
22E
100
AcDbEntity
  8
PLAIN_
  6
SOLID
 62
     3
100
AcDbLine
 10
-291.121032715
 20
247.4036102289999
 30
0.0
 11
-298.183197021
 21
254.465789795
 31
0.0
  0
LINE
  5
236
330
22E
100
AcDbEntity
  8
PLAIN_
  6
SOLID
 62
     3
100
AcDbLine
 10
-310.183166504
 20
266.465759277
 30
0.0
 11
-311.517730713
 21
267.8002929689999
 31
0.0
  0
LINE
  5
237
330
22E
100
AcDbEntity
  8
PLAIN_
  6
SOLID
 62
     3
100
AcDbLine
 10
-311.517730713
 20
272.0429382319999
 30
0.0
 11
-305.94052124
 21
266.465759277
 31
0.0
  0
LINE
  5
238
330
22E
100
AcDbEntity
  8
PLAIN_
  6
SOLID
 62
     3
100
AcDbLine
 10
-293.9405517579999
 20
254.465789795
 30
0.0
 11
-286.982971191
 21
247.508209229
 31
0.0
  0
LINE
  5
239
330
22E
100
AcDbEntity
  8
PLAIN_
  6
SOLID
 62
     3
100
AcDbLine
 10
-283.513275146
 20
248.2811584469999
 30
0.0
 11
-289.697937012
 21
254.465789795
 31
0.0
  0
LINE
  5
23A
330
22E
100
AcDbEntity
  8
PLAIN_
  6
SOLID
 62
     3
100
AcDbLine
 10
-301.697906494
 20
266.465759277
 30
0.0
 11
-308.7463073729999
 21
273.514160156
 31
0.0
  0
LINE
  5
23B
330
22E
100
AcDbEntity
  8
PLAIN_
  6
SOLID
 62
     3
100
AcDbLine
 10
-304.576416016
 20
273.58694458
 30
0.0
 11
-297.45526123
 21
266.4657897949999
 31
0.0
  0
LINE
  5
23C
330
22E
100
AcDbEntity
  8
PLAIN_
  6
SOLID
 62
     3
100
AcDbLine
 10
-285.4552917479999
 20
254.465789795
 30
0.0
 11
-280.711761475
 21
249.7222747799999
 31
0.0
  0
LINE
  5
23D
330
22E
100
AcDbEntity
  8
PLAIN_
  6
SOLID
 62
     3
100
AcDbLine
 10
-278.4370117189999
 20
251.6901702879999
 30
0.0
 11
-282.67401123
 21
255.927154541
 31
0.0
  0
LINE
  5
23E
330
22E
100
AcDbEntity
  8
PLAIN_
  6
SOLID
 62
     3
100
AcDbLine
 10
-293.2126464839999
 20
266.4657897949999
 30
0.0
 11
-300.406585693
 21
273.659729004
 31
0.0
  0
LINE
  5
23F
330
22E
100
AcDbEntity
  8
PLAIN_
  6
SOLID
 62
     3
100
AcDbLine
 10
-296.236724854
 20
273.732513428
 30
0.0
 11
-288.9700012209999
 21
266.4657897949999
 31
0.0
  0
LINE
  5
240
330
22E
100
AcDbEntity
  8
PLAIN_
  6
SOLID
 62
     3
100
AcDbLine
 10
-281.1210937499999
 20
258.616882324
 30
0.0
 11
-276.659881592
 21
254.1556701659999
 31
0.0
  0
LINE
  5
241
330
22E
100
AcDbEntity
  8
PLAIN_
  6
SOLID
 62
     3
100
AcDbLine
 10
-275.641143799
 20
257.379577637
 30
0.0
 11
-281.8653259279999
 21
263.603759766
 31
0.0
  0
LINE
  5
242
330
22E
100
AcDbEntity
  8
PLAIN_
  6
SOLID
 62
     3
100
AcDbLine
 10
-284.727355957
 20
266.4657897949999
 30
0.0
 11
-292.066864014
 21
273.805297852
 31
0.0
  0
LINE
  5
243
330
22E
100
AcDbEntity
  8
PLAIN_
  6
SOLID
 62
     3
100
AcDbLine
 10
-287.897003174
 20
273.8780822749999
 30
0.0
 11
-274.6154785159999
 21
260.596557617
 31
0.0
  0
LINE
  5
244
330
22E
100
AcDbEntity
  8
PLAIN_
  6
SOLID
 62
     3
100
AcDbLine
 10
-273.289703369
 20
263.513427734
 30
0.0
 11
-283.727142334
 21
273.950866699
 31
0.0
  0
LINE
  5
245
330
22E
100
AcDbEntity
  8
PLAIN_
  6
SOLID
 62
     3
100
AcDbLine
 10
-277.916778564
 20
272.383148193
 30
0.0
 11
-271.5882568359999
 21
266.054626465
 31
0.0
  0
LINE
  5
246
330
22E
100
AcDbEntity
  8
PLAIN_
  6
SOLID
 62
     3
100
AcDbLine
 10
-269.4517517089999
 20
268.160736084
 30
0.0
 11
-272.529602051
 21
271.238616943
 31
0.0
  0
ENDBLK
  5
247
330
22E
100
AcDbEntity
  8
0
100
AcDbBlockEnd
  0
BLOCK
  5
249
330
248
100
AcDbEntity
  8
PLAIN_
100
AcDbBlockBegin
  2
*U39
 70
     1
 10
0.0
 20
0.0
 30
0.0
  3
*U39
  1

  0
LINE
  5
24A
330
248
100
AcDbEntity
  8
PLAIN_
  6
SOLID
 62
     7
100
AcDbLine
 10
-312.701904297
 20
268.2637329099999
 30
0.0
 11
-311.971557617
 21
267.53338623
 31
0.0
  0
LINE
  5
24B
330
248
100
AcDbEntity
  8
PLAIN_
  6
SOLID
 62
     7
100
AcDbLine
 10
-311.6457519529999
 20
267.942962646
 30
0.0
 11
-312.7335205079999
 21
269.030761719
 31
0.0
  0
LINE
  5
24C
330
248
100
AcDbEntity
  8
PLAIN_
  6
SOLID
 62
     7
100
AcDbLine
 10
-312.626953125
 20
269.4898986819999
 30
0.0
 11
-311.526000977
 21
268.388916016
 31
0.0
  0
LINE
  5
24D
330
248
100
AcDbEntity
  8
PLAIN_
  6
SOLID
 62
     7
100
AcDbLine
 10
-311.5177001949999
 20
268.946350098
 30
0.0
 11
-312.4192504879999
 21
269.8478698729999
 31
0.0
  0
LINE
  5
24E
330
248
100
AcDbEntity
  8
PLAIN_
  6
SOLID
 62
     7
100
AcDbLine
 10
-311.971557617
 20
269.9658203129999
 30
0.0
 11
-311.5177001949999
 21
269.5120239259999
 31
0.0
  0
ENDBLK
  5
24F
330
248
100
AcDbEntity
  8
0
100
AcDbBlockEnd
  0
BLOCK
  5
251
330
250
100
AcDbEntity
  8
PLAIN_
100
AcDbBlockBegin
  2
*U40
 70
     1
 10
0.0
 20
0.0
 30
0.0
  3
*U40
  1

  0
LINE
  5
252
330
250
100
AcDbEntity
  8
PLAIN_
  6
SOLID
 62
     7
100
AcDbLine
 10
-312.7354736329999
 20
251.76348877
 30
0.0
 11
-312.005065918
 21
251.03314209
 31
0.0
  0
LINE
  5
253
330
250
100
AcDbEntity
  8
PLAIN_
  6
SOLID
 62
     7
100
AcDbLine
 10
-311.733947754
 20
251.327697754
 30
0.0
 11
-312.7677001949999
 21
252.3614807129999
 31
0.0
  0
LINE
  5
254
330
250
100
AcDbEntity
  8
PLAIN_
  6
SOLID
 62
     7
100
AcDbLine
 10
-312.6892700199999
 20
252.905273438
 30
0.0
 11
-311.576049805
 21
251.79208374
 31
0.0
  0
LINE
  5
255
330
250
100
AcDbEntity
  8
PLAIN_
  6
SOLID
 62
     7
100
AcDbLine
 10
-311.534667969
 20
252.316345215
 30
0.0
 11
-312.504394531
 21
253.286071777
 31
0.0
  0
LINE
  5
256
330
250
100
AcDbEntity
  8
PLAIN_
  6
SOLID
 62
     7
100
AcDbLine
 10
-312.118408203
 20
253.465789795
 30
0.0
 11
-311.665588379
 21
253.0129699709999
 31
0.0
  0
ENDBLK
  5
257
330
250
100
AcDbEntity
  8
0
100
AcDbBlockEnd
  0
BLOCK
  5
259
330
258
100
AcDbEntity
  8
PLAIN_
100
AcDbBlockBegin
  2
*D41
 70
     1
 10
0.0
 20
0.0
 30
0.0
  3
*D41
  1

  0
LINE
  5
25A
330
258
100
AcDbEntity
  8
PLAIN_
  6
SOLID
 62
     3
100
AcDbLine
 10
-121.212303162
 20
336.8400573729999
 30
0.0
 11
-85.36729431199999
 21
348.4868164059999
 31
0.0
  0
LINE
  5
25B
330
258
100
AcDbEntity
  8
PLAIN_
  6
SOLID
 62
     3
100
AcDbLine
 10
-116.886070251
 20
323.5252380369999
 30
0.0
 11
-81.041046143
 21
335.1719970699999
 31
0.0
  0
LINE
  5
25C
330
258
100
AcDbEntity
  8
PLAIN_
  6
SOLID
 62
     3
100
AcDbLine
 10
-86.318351746
 20
348.17779541
 30
0.0
 11
-91.01209258999999
 21
362.623626709
 31
0.0
  0
LINE
  5
25D
330
258
100
AcDbEntity
  8
PLAIN_
  6
SOLID
 62
     3
100
AcDbLine
 10
-91.01209258999999
 20
362.623626709
 30
0.0
 11
-79.21095275899999
 21
326.3034667969999
 31
0.0
  0
LINE
  5
25E
330
258
100
AcDbEntity
  8
PLAIN_
  6
SOLID
 62
     3
100
AcDbLine
 10
-89.123413086
 20
353.5751342769999
 30
0.0
 11
-86.318351746
 21
348.17779541
 31
0.0
  0
LINE
  5
25F
330
258
100
AcDbEntity
  8
PLAIN_
  6
SOLID
 62
     3
100
AcDbLine
 10
-86.318351746
 20
348.17779541
 30
0.0
 11
-87.22149658200001
 21
354.193115234
 31
0.0
  0
LINE
  5
260
330
258
100
AcDbEntity
  8
PLAIN_
  6
SOLID
 62
     3
100
AcDbLine
 10
-87.22149658200001
 20
354.193115234
 30
0.0
 11
-89.123413086
 21
353.5751342769999
 31
0.0
  0
LINE
  5
261
330
258
100
AcDbEntity
  8
PLAIN_
  6
SOLID
 62
     3
100
AcDbLine
 10
-81.992103577
 20
334.862976074
 30
0.0
 11
-79.21095275899999
 21
326.3034667969999
 31
0.0
  0
LINE
  5
262
330
258
100
AcDbEntity
  8
PLAIN_
  6
SOLID
 62
     3
100
AcDbLine
 10
-79.21095275899999
 20
326.3034667969999
 30
0.0
 11
-91.01209258999999
 21
362.623626709
 31
0.0
  0
LINE
  5
263
330
258
100
AcDbEntity
  8
PLAIN_
  6
SOLID
 62
     3
100
AcDbLine
 10
-79.18704223600001
 20
329.4656372069999
 30
0.0
 11
-81.992103577
 21
334.862976074
 31
0.0
  0
LINE
  5
264
330
258
100
AcDbEntity
  8
PLAIN_
  6
SOLID
 62
     3
100
AcDbLine
 10
-81.992103577
 20
334.862976074
 30
0.0
 11
-81.08895873999999
 21
328.84765625
 31
0.0
  0
LINE
  5
265
330
258
100
AcDbEntity
  8
PLAIN_
  6
SOLID
 62
     3
100
AcDbLine
 10
-81.08895873999999
 20
328.84765625
 30
0.0
 11
-79.18704223600001
 21
329.4656372069999
 31
0.0
  0
TEXT
  5
266
330
258
100
AcDbEntity
  8
PLAIN_
  6
SOLID
 62
     3
100
AcDbText
 10
-87.340026855
 20
361.030395508
 30
0.0
 40
6.0
  1
14
 50
287.999997996
 41
0.7332307500000001
100
AcDbText
  0
ENDBLK
  5
267
330
258
100
AcDbEntity
  8
0
100
AcDbBlockEnd
  0
BLOCK
  5
269
330
268
100
AcDbEntity
  8
PLAIN_
100
AcDbBlockBegin
  2
*U42
 70
     1
 10
0.0
 20
0.0
 30
0.0
  3
*U42
  1

  0
LINE
  5
26A
330
268
100
AcDbEntity
  8
PLAIN_
  6
SOLID
 62
     5
100
AcDbLine
 10
-315.05065918
 20
267.9658203129999
 30
0.0
 11
-315.450622559
 21
267.565856934
 31
0.0
  0
LINE
  5
26B
330
268
100
AcDbEntity
  8
PLAIN_
  6
SOLID
 62
     5
100
AcDbLine
 10
-322.52166748
 20
267.565856934
 30
0.0
 11
-322.121704102
 21
267.9658203129999
 31
0.0
  0
ENDBLK
  5
26C
330
268
100
AcDbEntity
  8
0
100
AcDbBlockEnd
  0
ENDSEC
  0
SECTION
  2
ENTITIES
  0
LWPOLYLINE
  5
26D
330
1E
100
AcDbEntity
  8
PLAIN_
  6
SOLID
 62
     7
100
AcDbPolyline
 90
      177
 70
     0
 43
0.0
 10
-364.086838495
 20
300.104683634
 10
-364.0658515459999
 20
302.295647095
 10
-364.0160280359999
 20
303.3873244259999
 10
-363.904127133
 20
304.472997003
 10
-363.604737049
 20
306.3438485059999
 10
-363.547183408
 20
306.971603074
 10
-363.547183408
 20
309.1132654209999
 10
-363.190239684
 20
311.9688152169999
 10
-363.1769633119999
 20
313.8584302609999
 10
-363.152424258
 20
314.3137192699999
 10
-363.0950743149999
 20
314.749630075
 10
-362.992752033
 20
315.1598965229999
 10
-362.833295959
 20
315.538252462
 10
-362.697337955
 20
315.760355687
 10
-362.536164111
 20
315.968669681
 10
-362.3526883419999
 20
316.1649026679999
 10
-362.149824561
 20
316.350762874
 10
-361.6975886159999
 20
316.698197842
 10
-360.178615483
 20
317.669211379
 10
-359.695907029
 20
318.014671434
 10
-359.263858714
 20
318.393802258
 10
-358.988777538
 20
318.7023591029999
 10
-358.751337106
 20
319.0346559019999
 10
-358.5487814099999
 20
319.388581504
 10
-358.378354438
 20
319.7620247559999
 10
-358.2373001819999
 20
320.152874506
 10
-358.1228626319999
 20
320.559019602
 10
-358.032285778
 20
320.9783488929999
 10
-357.962813611
 20
321.4087512259999
 10
-357.8761592959999
 20
322.2943304099999
 10
-357.84085161
 20
323.1988679379999
 10
-357.8208016809999
 20
326.5348225729999
 10
-357.836083816
 20
328.03128282
 10
-357.9872061119999
 20
330.3407290309999
 10
-358.0400290269999
 20
331.50507749
 10
-358.040038953
 20
332.088249872
 10
-358.014555679
 20
332.6715512389999
 10
-357.9455864349999
 20
333.356157502
 10
-357.8332914269999
 20
334.034477881
 10
-357.677774648
 20
334.700604422
 10
-357.4791400919999
 20
335.348629172
 10
-357.296190635
 20
335.8355207349999
 10
-357.09101823
 20
336.310364376
 10
-356.6284653449999
 20
337.233406295
 10
-355.083435963
 20
339.960340275
 10
-354.6123743959999
 20
340.918576988
 10
-354.401352271
 20
341.4176170499999
 10
-354.2114895099999
 20
341.9331043809999
 10
-354.046401304
 20
342.4674135809999
 10
-353.9097028469999
 20
343.022919249
 10
-353.815009495
 20
343.527085182
 10
-353.739826325
 20
344.044740949
 10
-353.534576943
 20
346.1593137679999
 10
-353.4195092619999
 20
347.1793060149999
 10
-353.3414314319999
 20
347.664062595
 10
-353.243016374
 20
348.1259295719999
 10
-353.1192831609999
 20
348.560359518
 10
-352.965250868
 20
348.962805003
 10
-352.775938568
 20
349.3287185969999
 10
-352.546365334
 20
349.6535528709999
 10
-352.271550241
 20
349.932760395
 10
-351.9465123619999
 20
350.161793739
 10
-351.713993154
 20
350.2786662209999
 10
-351.462026123
 20
350.374064475
 10
-351.193135874
 20
350.4482948069999
 10
-350.909847008
 20
350.5016635259999
 10
-350.614684128
 20
350.534476938
 10
-350.310171838
 20
350.5470413509999
 10
-349.683197436
 20
350.5126484099999
 10
-349.049120623
 20
350.40093516
 10
-348.4281382219999
 20
350.2143520619999
 10
-348.128868933
 20
350.093750088
 10
-347.840447055
 20
349.955349573
 10
-347.5653971909999
 20
349.7994568259999
 10
-347.306243943
 20
349.626378153
 10
-346.898694674
 20
349.28543982
 10
-346.5516091959999
 20
348.899750185
 10
-346.2695153319999
 20
348.475812843
 10
-346.056940908
 20
348.0201313919999
 10
-345.90661775
 20
347.5063655
 10
-345.814449468
 20
346.972445589
 10
-345.699997183
 20
345.8784690449999
 10
-345.5951251969999
 20
345.103216925
 10
-345.4578482459999
 20
344.3371452359999
 10
-345.121580299
 20
342.823751836
 10
-344.596021439
 20
340.567569242
 10
-344.4506941469999
 20
339.810425729
 10
-344.3168142659999
 20
338.9265536729999
 10
-344.216735524
 20
338.035958493
 10
-344.144400163
 20
337.1402376199999
 10
-344.093750423
 20
336.240988484
 10
-343.990252008
 20
333.5468967059999
 10
-343.9003867159999
 20
332.2094043499999
 10
-343.830075298
 20
331.545852549
 10
-343.7368066979999
 20
330.8868326159999
 10
-343.581456774
 20
330.062388853
 10
-343.386217767
 20
329.2456395809999
 10
-343.1549830929999
 20
328.435783325
 10
-342.891646171
 20
327.632018607
 10
-342.600100418
 20
326.8335439499999
 10
-342.284239252
 20
326.0395578769999
 10
-341.16818366
 20
323.489704474
 10
-340.9972618229999
 20
322.997923369
 10
-340.881256902
 20
322.49865509
 10
-340.8347238879999
 20
322.020345229
 10
-340.838896029
 20
321.534799915
 10
-341.052276017
 20
319.556939342
 10
-341.0772038339999
 20
319.0627231749999
 10
-341.0597287649999
 20
318.5722741209999
 10
-340.983410992
 20
318.035804587
 10
-340.750870047
 20
316.699814045
 10
-340.650581994
 20
315.894144164
 10
-340.4908715129999
 20
314.277909435
 10
-340.303263899
 20
312.667194702
 10
-340.16810443
 20
311.8684248159999
 10
-339.988897591
 20
311.0764559059999
 10
-339.8302480099999
 20
310.5322985239999
 10
-339.6319538669999
 20
310.0056247329999
 10
-339.426103084
 20
309.581739739
 10
-339.187446327
 20
309.17679807
 10
-338.92036287
 20
308.787704105
 10
-338.629231987
 20
308.4113622219999
 10
-337.992345034
 20
307.684552214
 10
-336.7613096909999
 20
306.391589077
 10
-336.250307522
 20
305.7909011929999
 10
-336.023705804
 20
305.478546203
 10
-335.823881766
 20
305.155912732
 10
-335.656468984
 20
304.821297444
 10
-335.527101035
 20
304.472997003
 10
-335.432795671
 20
304.069243569
 10
-335.3876279009999
 20
303.65092376
 10
-335.386875119
 20
303.222446872
 10
-335.4258147159999
 20
302.788222201
 10
-335.499724085
 20
302.3526590439999
 10
-335.6038806199999
 20
301.920166697
 10
-335.733561714
 20
301.495154457
 10
-335.884044759
 20
301.08203162
 10
-336.5862945079999
 20
299.459713689
 10
-336.7336858379999
 20
299.048065982
 10
-336.850637071
 20
298.620554374
 10
-336.927562378
 20
298.1704605609999
 10
-336.9548759329999
 20
297.691066237
 10
-336.874438707
 20
296.3650815799999
 10
-336.8782533659999
 20
296.062832545
 10
-336.9149167279999
 20
295.790364047
 10
-336.9960683509999
 20
295.556716927
 10
-337.0569646229999
 20
295.457276647
 10
-337.133347795
 20
295.3709320279999
 10
-337.269098317
 20
295.272120405
 10
-337.43363133
 20
295.19743777
 10
-337.8286400299999
 20
295.103169294
 10
-338.739594555
 20
295.013988303
 10
-339.5139929169999
 20
294.896183645
 10
-340.2287262899999
 20
294.722732581
 10
-342.514701262
 20
294.024217827
 10
-343.4420037689999
 20
293.7246178959999
 10
-343.896429623
 20
293.5517099229999
 10
-344.338235878
 20
293.35581572
 10
-344.762570535
 20
293.1312496199999
 10
-345.164581596
 20
292.8723259559999
 10
-345.7075300469999
 20
292.437333191
 10
-346.2354127699999
 20
291.9799666449999
 10
-346.6461732289999
 20
291.6518414009999
 10
-347.0684666169999
 20
291.340242104
 10
-348.7950979219999
 20
290.1389863029999
 10
-349.216652303
 20
289.819928178
 10
-349.626378153
 20
289.4813605739999
 10
-350.1673569309999
 20
288.970146459
 10
-350.658267415
 20
288.411688554
 10
-350.878791834
 20
288.115382632
 10
-351.079412924
 20
287.8080331059999
 10
-351.257668599
 20
287.489895756
 10
-351.4110967749999
 20
287.161226364
 10
-351.6177398059999
 20
286.5639845769999
 10
-351.76199215
 20
285.943248734
 10
-351.864650704
 20
285.3068501889999
 10
-351.9465123619999
 20
284.662620293
  0
LINE
  5
320
330
1E
100
AcDbEntity
  8
PLAIN_
  6
SOLID
 62
     7
100
AcDbLine
 10
-378.517730713
 20
426.965789795
 30
0.0
 11
-378.517730713
 21
303.9657897949999
 31
0.0
  0
LINE
  5
321
330
1E
100
AcDbEntity
  8
PLAIN_
  6
CENTER
 62
     2
100
AcDbLine
 10
-148.5526504519999
 20
365.808837891
 30
0.0
 11
129.7473373409999
 21
365.808837891
 31
0.0
  0
LINE
  5
322
330
1E
100
AcDbEntity
  8
PLAIN_
  6
SOLID
 62
     7
100
AcDbLine
 10
-368.517730713
 20
302.965789384
 30
0.0
 11
-368.517730713
 21
427.965789384
 31
0.0
  0
LINE
  5
323
330
1E
100
AcDbEntity
  8
PLAIN_
  6
SOLID
 62
     7
100
AcDbLine
 10
-319.5177307129999
 20
486.4657897949999
 30
0.0
 11
-320.517730713
 21
485.465789795
 31
0.0
  0
INSERT
  5
324
330
1E
100
AcDbEntity
  8
PLAIN_
100
AcDbBlockReference
  2
*U0
 10
0.0
 20
0.0
 30
0.0
  0
LINE
  5
325
330
1E
100
AcDbEntity
  8
PLAIN_
  6
SOLID
 62
     7
100
AcDbLine
 10
-344.517730713
 20
485.465789795
 30
0.0
 11
-320.517730713
 21
485.465789795
 31
0.0
  0
LINE
  5
326
330
1E
100
AcDbEntity
  8
PLAIN_
  6
SOLID
 62
     7
100
AcDbLine
 10
-319.5177307129999
 20
486.4657897949999
 30
0.0
 11
-312.5177307129999
 21
486.4657897949999
 31
0.0
  0
LINE
  5
327
330
1E
100
AcDbEntity
  8
PLAIN_
  6
SOLID
 62
     7
100
AcDbLine
 10
-345.517730728
 20
484.46578978
 30
0.0
 11
-344.517730713
 21
485.465789795
 31
0.0
  0
LINE
  5
328
330
1E
100
AcDbEntity
  8
PLAIN_
  6
SOLID
 62
     7
100
AcDbLine
 10
-351.517730713
 20
365.4657897949999
 30
0.0
 11
-351.517730713
 21
450.965789384
 31
0.0
  0
LINE
  5
329
330
1E
100
AcDbEntity
  8
PLAIN_
  6
SOLID
 62
     7
100
AcDbLine
 10
-349.517730713
 20
452.965789384
 30
0.0
 11
-351.517730713
 21
450.965789384
 31
0.0
  0
LINE
  5
32A
330
1E
100
AcDbEntity
  8
PLAIN_
  6
SOLID
 62
     7
100
AcDbLine
 10
-365.7434431089999
 20
430.7400769869999
 30
0.0
 11
-357.203714975
 21
431.187625174
 31
0.0
  0
LINE
  5
32B
330
1E
100
AcDbEntity
  8
PLAIN_
  6
SOLID
 62
     7
100
AcDbLine
 10
-368.517730713
 20
427.965789384
 30
0.0
 11
-365.7434431089999
 21
430.7400769869999
 31
0.0
  0
ARC
  5
32C
330
1E
100
AcDbEntity
  8
PLAIN_
  6
SOLID
 62
     7
100
AcDbCircle
 10
-357.517730713
 20
437.179402383
 30
0.0
 40
6.0
100
AcDbArc
 50
273.0
 51
0.0
  0
LINE
  5
32D
330
1E
100
AcDbEntity
  8
PLAIN_
  6
SOLID
 62
     7
100
AcDbLine
 10
-365.7434431089999
 20
300.191502603
 30
0.0
 11
-357.203714975
 21
299.743954415
 31
0.0
  0
LINE
  5
32E
330
1E
100
AcDbEntity
  8
PLAIN_
  6
SOLID
 62
     7
100
AcDbLine
 10
-368.51772989
 20
302.965789384
 30
0.0
 11
-365.7434431089999
 21
300.191502603
 31
0.0
  0
ARC
  5
32F
330
1E
100
AcDbEntity
  8
PLAIN_
  6
SOLID
 62
     7
100
AcDbCircle
 10
-357.517730713
 20
293.7521772069999
 30
0.0
 40
6.0
100
AcDbArc
 50
0.0
 51
87.0
  0
LINE
  5
330
330
1E
100
AcDbEntity
  8
PLAIN_
  6
SOLID
 62
     7
100
AcDbLine
 10
-1.721039608999999
 20
252.935294694
 30
0.0
 11
-0.209399661
 21
245.1585813299999
 31
0.0
  0
LINE
  5
331
330
1E
100
AcDbEntity
  8
PLAIN_
  6
SOLID
 62
     7
100
AcDbLine
 10
-351.517730713
 20
365.4657897949999
 30
0.0
 11
-351.517730713
 21
350.3553446219999
 31
0.0
  0
LINE
  5
332
330
1E
100
AcDbEntity
  8
PLAIN_
  6
SOLID
 62
     7
100
AcDbLine
 10
-349.5177298899999
 20
277.965789384
 30
0.0
 11
-351.517730713
 21
279.965790206
 31
0.0
  0
LINE
  5
333
330
1E
100
AcDbEntity
  8
PLAIN_
  6
SOLID
 62
     7
100
AcDbLine
 10
-344.517730713
 20
245.465789795
 30
0.0
 11
-320.517730713
 21
245.465789795
 31
0.0
  0
LINE
  5
334
330
1E
100
AcDbEntity
  8
PLAIN_
  6
SOLID
 62
     7
100
AcDbLine
 10
-319.5177307129999
 20
244.4657897949999
 30
0.0
 11
-320.517730713
 21
245.465789795
 31
0.0
  0
LINE
  5
335
330
1E
100
AcDbEntity
  8
PLAIN_
  6
SOLID
 62
     7
100
AcDbLine
 10
-345.517730713
 20
246.465789795
 30
0.0
 11
-344.517730713
 21
245.465789795
 31
0.0
  0
LINE
  5
336
330
1E
100
AcDbEntity
  8
PLAIN_
  6
CENTER
 62
     2
100
AcDbLine
 10
-233.4443548629999
 20
260.4657897949999
 30
0.0
 11
-208.103388379
 21
260.4657897949999
 31
0.0
  0
LINE
  5
337
330
1E
100
AcDbEntity
  8
PLAIN_
  6
SOLID
 62
     7
100
AcDbLine
 10
-319.5177307129999
 20
244.4657897949999
 30
0.0
 11
-312.5177307129999
 21
244.4657897949999
 31
0.0
  0
LINE
  5
338
330
1E
100
AcDbEntity
  8
PLAIN_
  6
SOLID
 62
     7
100
AcDbLine
 10
-345.517730713
 20
365.4657897949999
 30
0.0
 11
-345.517730713
 21
344.6516220309999
 31
0.0
  0
LINE
  5
339
330
1E
100
AcDbEntity
  8
PLAIN_
  6
SOLID
 62
     7
100
AcDbLine
 10
-345.517730713
 20
292.598306637
 30
0.0
 11
-345.517730713
 21
246.465789795
 31
0.0
  0
LWPOLYLINE
  5
33A
330
1E
100
AcDbEntity
  8
PLAIN_
  6
SOLID
 62
     7
100
AcDbPolyline
 90
      104
 70
     0
 43
0.0
 10
-209.4862974559999
 20
391.45508101
 10
-210.4692713179999
 20
391.2475579
 10
-210.962428554
 20
391.16990642
 10
-211.4568902829999
 20
391.1126466759999
 10
-211.9912270239999
 20
391.0754530569999
 10
-212.52712968
 20
391.06198511
 10
-213.60317373
 20
391.0960406659999
 10
-214.6841044159999
 20
391.1944422119999
 10
-215.769003721
 20
391.3368186159999
 10
-217.947036122
 20
391.672011465
 10
-219.038333184
 20
391.824085645
 10
-220.129926798
 20
391.938650153
 10
-220.9575662999999
 20
391.9905461289999
 10
-221.7848116459999
 20
392.015301149
 10
-223.437973309
 20
392.0080153919999
 10
-226.73795462
 20
391.938650153
 10
-229.5215242369999
 20
391.958642824
 10
-230.454970269
 20
391.938650153
 10
-231.619007991
 20
391.861973521
 10
-232.19904796
 20
391.7966219759999
 10
-232.7750530169999
 20
391.710358769
 10
-233.344986427
 20
391.601006768
 10
-233.9068114509999
 20
391.4663888399999
 10
-234.4584913529999
 20
391.304327854
 10
-234.997989396
 20
391.1126466759999
 10
-235.628349494
 20
390.8429975569999
 10
-236.246176684
 20
390.5389923059999
 10
-238.274600513
 20
389.43215771
 10
-239.050290232
 20
388.960727063
 10
-239.416580607
 20
388.704454128
 10
-239.7615877929999
 20
388.42950144
 10
-240.0801266409999
 20
388.132137989
 10
-240.3670120009999
 20
387.808632765
 10
-240.6674603349999
 20
387.37772308
 10
-240.9178697259999
 20
386.909351005
 10
-241.1224635479999
 20
386.410055951
 10
-241.2854651759999
 20
385.886377328
 10
-241.411097984
 20
385.344854548
 10
-241.503585344
 20
384.7920270219999
 10
-241.5671506309999
 20
384.2344341609999
 10
-241.6060172179999
 20
383.6786153769999
 10
-241.627316327
 20
382.9441587489999
 10
-241.6060172179999
 20
380.7876032049999
 10
-241.6441267059999
 20
379.143332691
 10
-241.744936889
 20
377.491346014
 10
-242.0190189569999
 20
374.179575383
 10
-242.432020695
 20
368.3975510399999
 10
-242.763875522
 20
364.3696734219999
 10
-242.845022434
 20
363.028528435
 10
-242.905060419
 20
361.076390915
 10
-242.910208364
 20
359.1220403059999
 10
-242.7941604899999
 20
352.956110314
 10
-242.7391733329999
 20
351.845623068
 10
-242.6457267709999
 20
350.7430466559999
 10
-242.4997543409999
 20
349.6532115539999
 10
-242.2871895809999
 20
348.580948239
 10
-242.1515393069999
 20
348.0529155269999
 10
-241.9939660269999
 20
347.53108719
 10
-241.812711433
 20
347.016067038
 10
-241.6060172179999
 20
346.5084588819999
 10
-241.347557091
 20
345.96062396
 10
-241.055428783
 20
345.429298224
 10
-240.728843389
 20
344.921300644
 10
-240.3670120009999
 20
344.4434501869999
 10
-239.984790224
 20
344.0167723949999
 10
-239.5712591279999
 20
343.6235354299999
 10
-239.12856091
 20
343.262864171
 10
-238.6588377679999
 20
342.9338834949999
 10
-238.164231897
 20
342.6357182789999
 10
-237.646885495
 20
342.3674934019999
 10
-237.1089407569999
 20
342.12833374
 10
-236.5525398809999
 20
341.9173641709999
 10
-235.979825064
 20
341.733709573
 10
-235.3929385009999
 20
341.576494822
 10
-234.794022389
 20
341.444844798
 10
-234.1852189259999
 20
341.337884377
 10
-233.568670307
 20
341.254738437
 10
-232.94651873
 20
341.1945318549999
 10
-232.3209063909999
 20
341.156389509
 10
-231.6939754859999
 20
341.139436277
 10
-230.4959049359999
 20
341.1617412929999
 10
-229.302392799
 20
341.2454139149999
 10
-228.114980227
 20
341.37740416
 10
-226.9352083699999
 20
341.544662042
 10
-222.323351105
 20
342.305370256
 10
-221.204900083
 20
342.453216559
 10
-220.1033366809999
 20
342.558030593
 10
-219.020202049
 20
342.6067623729999
 10
-217.9570373379999
 20
342.586361915
 10
-217.433425312
 20
342.546158977
 10
-216.915383698
 20
342.4837792349999
 10
-216.40310514
 20
342.397591442
 10
-215.8967822809999
 20
342.2859643479999
 10
-215.396607765
 20
342.147266707
 10
-214.902774237
 20
341.97986727
 10
-214.415474339
 20
341.7821347889999
 10
-213.9349007159999
 20
341.5524380159999
 10
-213.4209985259999
 20
341.2674454159999
 10
-212.912297957
 20
340.9537510979999
 10
-211.898755594
 20
340.283512913
 10
-210.870781444
 20
339.628234672
 10
-210.3440411429999
 20
339.333240283
 10
-209.804883328
 20
339.0744275829999
 10
-209.517730727
 20
338.956976523
  0
INSERT
  5
3A4
330
1E
100
AcDbEntity
  8
PLAIN_
100
AcDbBlockReference
  2
*D1
 10
0.0
 20
0.0
 30
0.0
  0
LINE
  5
3A5
330
1E
100
AcDbEntity
  8
PLAIN_
  6
CENTER
 62
     2
100
AcDbLine
 10
-9.402654648
 20
365.808837891
 30
0.0
 11
-9.402654648
 21
504.9588317869999
 31
0.0
  0
LINE
  5
3A6
330
1E
100
AcDbEntity
  8
PLAIN_
  6
SOLID
 62
     7
100
AcDbLine
 10
-351.517730713
 20
293.7521772069999
 30
0.0
 11
-351.517730713
 21
279.965790206
 31
0.0
  0
LINE
  5
3A7
330
1E
100
AcDbEntity
  8
PLAIN_
  6
L_DASH
 62
     7
100
AcDbLine
 10
-11.545527916
 20
303.4779054689999
 30
0.0
 11
-38.916085555
 21
310.302151942
 31
0.0
  0
CIRCLE
  5
3A8
330
1E
100
AcDbEntity
  8
PLAIN_
  6
SOLID
 62
     2
100
AcDbCircle
 10
-71.12015337399999
 20
450.755607637
 30
0.0
 40
9.0
  0
ARC
  5
3A9
330
1E
100
AcDbEntity
  8
PLAIN_
  6
SOLID
 62
     7
100
AcDbCircle
 10
-9.402661413999998
 20
365.808835614
 30
0.0
 40
87.5
100
AcDbArc
 50
51.63884674999999
 51
74.445208982
  0
ARC
  5
3AA
330
1E
100
AcDbEntity
  8
PLAIN_
  6
SOLID
 62
     7
100
AcDbCircle
 10
23.15408629199999
 20
460.360524278
 30
0.0
 40
6.580000401
100
AcDbArc
 50
329.6381184729999
 51
260.5044290329999
  0
LINE
  5
3AB
330
1E
100
AcDbEntity
  8
PLAIN_
  6
SOLID
 62
     7
100
AcDbLine
 10
-11.12390388999999
 20
301.308837891
 30
0.0
 11
-5.22987037
 21
270.986664078
 31
0.0
  0
LINE
  5
3AC
330
1E
100
AcDbEntity
  8
PLAIN_
  6
SOLID
 62
     7
100
AcDbLine
 10
-209.4687423859999
 20
452.044929504
 30
0.0
 11
-209.487308461
 21
387.965682983
 31
0.0
  0
LINE
  5
3AD
330
1E
100
AcDbEntity
  8
PLAIN_
  6
CENTER
 62
     2
100
AcDbLine
 10
-9.402660194999999
 20
365.808837545
 30
0.0
 11
-38.114819943
 21
250.6506546699999
 31
0.0
  0
LINE
  5
3AE
330
1E
100
AcDbEntity
  8
PLAIN_
  6
SOLID
 62
     7
100
AcDbLine
 10
-357.203714975
 20
336.056783661
 30
0.0
 11
-357.203714975
 21
431.187625174
 31
0.0
  0
INSERT
  5
3AF
330
1E
100
AcDbEntity
  8
PLAIN_
100
AcDbBlockReference
  2
*U2
 10
0.0
 20
0.0
 30
0.0
  0
LINE
  5
3B0
330
1E
100
AcDbEntity
  8
PLAIN_
  6
CENTER
 62
     2
100
AcDbLine
 10
-314.4246365779999
 20
260.4657897949999
 30
0.0
 11
-280.517732635
 21
260.4657897949999
 31
0.0
  0
LINE
  5
3B1
330
1E
100
AcDbEntity
  8
PLAIN_
  6
SOLID
 62
     7
100
AcDbLine
 10
-311.517730728
 20
253.465789795
 30
0.0
 11
-311.517730728
 21
245.465782166
 31
0.0
  0
LINE
  5
3B2
330
1E
100
AcDbEntity
  8
PLAIN_
  6
SOLID
 62
     7
100
AcDbLine
 10
-311.517730728
 20
276.4658199009999
 30
0.0
 11
-311.517730728
 21
267.4657897949999
 31
0.0
  0
LINE
  5
3B3
330
1E
100
AcDbEntity
  8
PLAIN_
  6
SOLID
 62
     2
100
AcDbLine
 10
-66.16203875
 20
447.8930511799999
 30
0.0
 11
-71.120138149
 21
445.030471704
 31
0.0
  0
LINE
  5
3B4
330
1E
100
AcDbEntity
  8
PLAIN_
  6
SOLID
 62
     2
100
AcDbLine
 10
-71.120138116
 20
445.0304718339999
 30
0.0
 11
-76.07825259800001
 21
447.8930434519999
 31
0.0
  0
LINE
  5
3B5
330
1E
100
AcDbEntity
  8
PLAIN_
  6
SOLID
 62
     7
100
AcDbLine
 10
-311.517730728
 20
273.465789795
 30
0.0
 11
-281.2677820719999
 21
273.993804613
 31
0.0
  0
TEXT
  5
3B6
330
1E
100
AcDbEntity
  8
PLAIN_
  6
SOLID
 62
     7
100
AcDbText
 10
-13.40118885
 20
462.9980163569999
 30
0.0
 40
10.0
  1
1
 41
0.408672523
100
AcDbText
  0
TEXT
  5
3B7
330
1E
100
AcDbEntity
  8
PLAIN_
  6
SOLID
 62
     7
100
AcDbText
 10
-103.070556641
 20
392.039093018
 30
0.0
 40
10.0
  1
5
 50
72.00000200399999
 41
0.6160494800000001
100
AcDbText
  0
TEXT
  5
3B8
330
1E
100
AcDbEntity
  8
PLAIN_
  6
SOLID
 62
     7
100
AcDbText
 10
-77.35614776600001
 20
277.667755127
 30
0.0
 40
10.0
  1
4
 50
323.9999989979999
 41
0.717609501
100
AcDbText
  0
LINE
  5
3B9
330
1E
100
AcDbEntity
  8
PLAIN_
  6
SOLID
 62
     2
100
AcDbLine
 10
-76.07825273999999
 20
447.89304355
 30
0.0
 11
-76.078267998
 21
453.618171724
 31
0.0
  0
LINE
  5
3BA
330
1E
100
AcDbEntity
  8
PLAIN_
  6
SOLID
 62
     2
100
AcDbLine
 10
-76.07825273999999
 20
453.618171724
 30
0.0
 11
-71.12016889
 21
456.480743299
 31
0.0
  0
ARC
  5
3BB
330
1E
100
AcDbEntity
  8
PLAIN_
  6
SOLID
 62
     7
100
AcDbCircle
 10
71.62148242399999
 20
450.078387053
 30
0.0
 40
1.0
100
AcDbArc
 50
39.000003727
 51
129.000003727
  0
LINE
  5
3BC
330
1E
100
AcDbEntity
  8
PLAIN_
  6
SOLID
 62
     2
100
AcDbLine
 10
-71.12015337399999
 20
456.48074344
 30
0.0
 11
-66.162053991
 21
453.6181869199999
 31
0.0
  0
LINE
  5
3BD
330
1E
100
AcDbEntity
  8
PLAIN_
  6
SOLID
 62
     2
100
AcDbLine
 10
-66.16203875
 20
453.618171724
 30
0.0
 11
-66.16203875
 21
447.89304355
 31
0.0
  0
ARC
  5
3BE
330
1E
100
AcDbEntity
  8
PLAIN_
  6
SOLID
 62
     7
100
AcDbCircle
 10
-9.402657449999999
 20
365.8088359409999
 30
0.0
 40
120.0
100
AcDbArc
 50
210.994137065
 51
247.512069194
  0
LINE
  5
3BF
330
1E
100
AcDbEntity
  8
PLAIN_
  6
L_DASH
 62
     7
100
AcDbLine
 10
-38.916085555
 20
310.302151942
 30
0.0
 11
-45.558898469
 21
297.8088378909999
 31
0.0
  0
LINE
  5
3C0
330
1E
100
AcDbEntity
  8
PLAIN_
  6
SOLID
 62
     7
100
AcDbLine
 10
-229.5177307279999
 20
279.9657897949999
 30
0.0
 11
-229.5177307279999
 21
251.7805786129999
 31
0.0
  0
CIRCLE
  5
3C1
330
1E
100
AcDbEntity
  8
PLAIN_
  6
SOLID
 62
     7
100
AcDbCircle
 10
79.19236549699999
 20
437.55115341
 30
0.0
 40
1.100000024
  0
ARC
  5
3C2
330
1E
100
AcDbEntity
  8
PLAIN_
  6
SOLID
 62
     7
100
AcDbCircle
 10
-231.5177307279999
 20
279.9657897949999
 30
0.0
 40
2.0
100
AcDbArc
 50
0.0
 51
90.0
  0
LINE
  5
3C3
330
1E
100
AcDbEntity
  8
PLAIN_
  6
CENTER
 62
     2
100
AcDbLine
 10
80.99650951900001
 20
435.3232214080001
 30
0.0
 11
77.596763135
 21
439.5215579459999
 31
0.0
  0
LINE
  5
3C4
330
1E
100
AcDbEntity
  8
PLAIN_
  6
SOLID
 62
     7
100
AcDbLine
 10
90.64892081000001
 20
428.1704763459999
 30
0.0
 11
72.39862788100001
 21
450.707707941
 31
0.0
  0
ARC
  5
3C5
330
1E
100
AcDbEntity
  8
PLAIN_
  6
SOLID
 62
     7
100
AcDbCircle
 10
89.87177523099999
 20
427.541155358
 30
0.0
 40
1.0
100
AcDbArc
 50
309.000003727
 51
39.000003727
  0
LINE
  5
3C6
330
1E
100
AcDbEntity
  8
PLAIN_
  6
SOLID
 62
     7
100
AcDbLine
 10
63.30098824100001
 20
404.737794378
 30
0.0
 11
90.501095339
 21
426.764009983
 31
0.0
  0
ARC
  5
3C7
330
1E
100
AcDbEntity
  8
PLAIN_
  6
SOLID
 62
     7
100
AcDbCircle
 10
62.671668012
 20
405.514939902
 30
0.0
 40
1.0
100
AcDbArc
 50
219.000003727
 51
309.000003727
  0
TEXT
  5
3C8
330
1E
100
AcDbEntity
  8
PLAIN_
  6
SOLID
 62
     7
100
AcDbText
 10
53.611610413
 20
273.4604797359999
 30
0.0
 40
10.0
  1
3
 50
36.00000100199999
 41
0.6172657970000001
100
AcDbText
  0
TEXT
  5
3C9
330
1E
100
AcDbEntity
  8
PLAIN_
  6
SOLID
 62
     7
100
AcDbText
 10
81.79411315899999
 20
399.644805908
 30
0.0
 40
10.0
  1
2
 50
288.0000048269999
 41
0.6367263789999999
100
AcDbText
  0
LINE
  5
3CA
330
1E
100
AcDbEntity
  8
PLAIN_
  6
SOLID
 62
     7
100
AcDbLine
 10
-209.517730728
 20
447.965789795
 30
0.0
 11
-209.517730728
 21
452.9657897949999
 31
0.0
  0
LINE
  5
3CB
330
1E
100
AcDbEntity
  8
PLAIN_
  6
SOLID
 62
     7
100
AcDbLine
 10
-209.517730728
 20
342.9656829829999
 30
0.0
 11
-209.517730728
 21
277.9657897949999
 31
0.0
  0
LINE
  5
3CC
330
1E
100
AcDbEntity
  8
PLAIN_
  6
CENTER
 62
     2
100
AcDbLine
 10
56.904986089
 20
415.8142875869999
 30
0.0
 11
53.505239705
 21
420.012624124
 31
0.0
  0
ARC
  5
3CD
330
1E
100
AcDbEntity
  8
PLAIN_
  6
SOLID
 62
     7
100
AcDbCircle
 10
-223.517730728
 20
475.657435245
 30
0.0
 40
6.0
100
AcDbArc
 50
0.0
 51
83.000000003
  0
ARC
  5
3CE
330
1E
100
AcDbEntity
  8
PLAIN_
  6
SOLID
 62
     7
100
AcDbCircle
 10
-244.87278711
 20
481.302035942
 30
0.0
 40
3.0
100
AcDbArc
 50
83.000000003
 51
88.999998133
  0
ARC
  5
3CF
330
1E
100
AcDbEntity
  8
PLAIN_
  6
SOLID
 62
     7
100
AcDbCircle
 10
-214.517730728
 20
473.465789795
 30
0.0
 40
3.0
100
AcDbArc
 50
180.0
 51
270.0
  0
LINE
  5
3D0
330
1E
100
AcDbEntity
  8
PLAIN_
  6
SOLID
 62
     7
100
AcDbLine
 10
-244.5071790799999
 20
484.2796743969999
 30
0.0
 11
-222.786514668
 21
481.612712155
 31
0.0
  0
CIRCLE
  5
3D1
330
1E
100
AcDbEntity
  8
PLAIN_
  6
SOLID
 62
     7
100
AcDbCircle
 10
55.100841961
 20
418.04221972
 30
0.0
 40
1.100000024
  0
LINE
  5
3D2
330
1E
100
AcDbEntity
  8
PLAIN_
  6
L_DASH
 62
     7
100
AcDbLine
 10
-11.545527916
 20
303.4779054689999
 30
0.0
 11
-11.12390388999999
 21
301.308837891
 31
0.0
  0
LINE
  5
3D3
330
1E
100
AcDbEntity
  8
PLAIN_
  6
SOLID
 62
     2
100
AcDbLine
 10
-4.444581985
 20
310.446288109
 30
0.0
 11
-9.402681383999999
 21
307.583708633
 31
0.0
  0
LINE
  5
3D4
330
1E
100
AcDbEntity
  8
PLAIN_
  6
SOLID
 62
     7
100
AcDbLine
 10
61.894521878
 20
404.88561985
 30
0.0
 11
43.64422894899999
 21
427.4228514449999
 31
0.0
  0
LINE
  5
3D5
330
1E
100
AcDbEntity
  8
PLAIN_
  6
SOLID
 62
     7
100
AcDbLine
 10
-217.517730728
 20
475.657435245
 30
0.0
 11
-217.517730728
 21
473.465789795
 31
0.0
  0
LINE
  5
3D6
330
1E
100
AcDbEntity
  8
PLAIN_
  6
SOLID
 62
     2
100
AcDbLine
 10
-4.444581985
 20
316.171408653
 30
0.0
 11
-4.444581985
 21
310.4462804789999
 31
0.0
  0
ARC
  5
3D7
330
1E
100
AcDbEntity
  8
PLAIN_
  6
SOLID
 62
     7
100
AcDbCircle
 10
-243.22687413
 20
271.9657897949999
 30
0.0
 40
10.0
100
AcDbArc
 50
90.0
 51
119.9999999999999
  0
LINE
  5
3D8
330
1E
100
AcDbEntity
  8
PLAIN_
  6
SOLID
 62
     2
100
AcDbLine
 10
-9.402696608999999
 20
319.03398037
 30
0.0
 11
-4.444597225999999
 21
316.171423849
 31
0.0
  0
LINE
  5
3D9
330
1E
100
AcDbEntity
  8
PLAIN_
  6
SOLID
 62
     7
100
AcDbLine
 10
43.79205441999999
 20
428.829317808
 30
0.0
 11
70.992161518
 21
450.855533413
 31
0.0
  0
ARC
  5
3DA
330
1E
100
AcDbEntity
  8
PLAIN_
  6
SOLID
 62
     7
100
AcDbCircle
 10
44.421375206
 20
428.0521715969999
 30
0.0
 40
1.0
100
AcDbArc
 50
129.000003727
 51
219.000003727
  0
LINE
  5
3DB
330
1E
100
AcDbEntity
  8
PLAIN_
  6
SOLID
 62
     4
100
AcDbLine
 10
-352.518039839
 20
323.6282057909999
 30
0.0
 11
-346.518039839
 21
323.6282057909999
 31
0.0
  0
CIRCLE
  5
3DC
330
1E
100
AcDbEntity
  8
PLAIN_
  6
SOLID
 62
     7
100
AcDbCircle
 10
23.15408629199999
 20
460.360524278
 30
0.0
 40
5.725000381
  0
ARC
  5
3DD
330
1E
100
AcDbEntity
  8
PLAIN_
  6
CENTER
 62
     2
100
AcDbCircle
 10
-9.402730591
 20
365.808665973
 30
0.0
 40
100.0
100
AcDbArc
 50
59.21228588199999
 51
81.075149981
  0
LINE
  5
3DE
330
1E
100
AcDbEntity
  8
PLAIN_
  6
CENTER
 62
     2
100
AcDbLine
 10
17.79855528199999
 20
444.8054652409999
 30
0.0
 11
31.344875651
 21
484.146838563
 31
0.0
  0
CIRCLE
  5
3DF
330
1E
100
AcDbEntity
  8
PLAIN_
  6
SOLID
 62
     7
100
AcDbCircle
 10
-91.31800145099999
 20
308.451086088
 30
0.0
 40
5.725000381
  0
LINE
  5
3E0
330
1E
100
AcDbEntity
  8
PLAIN_
  6
SOLID
 62
     2
100
AcDbLine
 10
-14.360795975
 20
316.171408653
 30
0.0
 11
-9.402712125
 21
319.033980228
 31
0.0
  0
LINE
  5
3E1
330
1E
100
AcDbEntity
  8
PLAIN_
  6
SOLID
 62
     2
100
AcDbLine
 10
-14.360795975
 20
310.4462804789999
 30
0.0
 11
-14.360811234
 21
316.171408653
 31
0.0
  0
LINE
  5
3E2
330
1E
100
AcDbEntity
  8
PLAIN_
  6
SOLID
 62
     7
100
AcDbLine
 10
-310.5177307279999
 20
244.4657821659999
 30
0.0
 11
-311.517730694
 21
245.465782131
 31
0.0
  0
LINE
  5
3E3
330
1E
100
AcDbEntity
  8
PLAIN_
  6
SOLID
 62
     7
100
AcDbLine
 10
-293.517730728
 20
244.4657821659999
 30
0.0
 11
-310.5177269129999
 21
244.4657821659999
 31
0.0
  0
LINE
  5
3E4
330
1E
100
AcDbEntity
  8
PLAIN_
  6
SOLID
 62
     2
100
AcDbLine
 10
-9.402681351
 20
307.583708763
 30
0.0
 11
-14.36079583299999
 21
310.446280381
 31
0.0
  0
LINE
  5
3E5
330
1E
100
AcDbEntity
  8
PLAIN_
  6
SOLID
 62
     7
100
AcDbLine
 10
-229.5177307279999
 20
268.3585786179999
 30
0.0
 11
-214.517730728
 21
267.9657897949999
 31
0.0
  0
ARC
  5
3E6
330
1E
100
AcDbEntity
  8
PLAIN_
  6
SOLID
 62
     7
100
AcDbCircle
 10
-290.517730728
 20
488.09967041
 30
0.0
 40
3.0
100
AcDbArc
 50
213.000549952
 51
269.1896992509999
  0
LINE
  5
3E7
330
1E
100
AcDbEntity
  8
PLAIN_
  6
SOLID
 62
     4
100
AcDbLine
 10
-352.518039839
 20
340.466080761
 30
0.0
 11
-349.518039839
 21
342.198131569
 31
0.0
  0
LINE
  5
3E8
330
1E
100
AcDbEntity
  8
PLAIN_
  6
SOLID
 62
     7
100
AcDbLine
 10
-310.5177307279999
 20
486.4657897949999
 30
0.0
 11
-311.517730694
 21
485.465789829
 31
0.0
  0
LINE
  5
3E9
330
1E
100
AcDbEntity
  8
PLAIN_
  6
SOLID
 62
     7
100
AcDbLine
 10
-293.033596054
 20
486.4657897949999
 30
0.0
 11
-310.5177269129999
 21
486.4657897949999
 31
0.0
  0
LINE
  5
3EA
330
1E
100
AcDbEntity
  8
PLAIN_
  6
SOLID
 62
     7
100
AcDbLine
 10
-287.5177307279999
 20
253.465789795
 30
0.0
 11
-283.440046143
 21
254.465789845
 31
0.0
  0
LINE
  5
3EB
330
1E
100
AcDbEntity
  8
PLAIN_
  6
SOLID
 62
     4
100
AcDbLine
 10
-352.518039839
 20
340.466080761
 30
0.0
 11
-352.518039839
 21
323.6282057909999
 31
0.0
  0
LINE
  5
3EC
330
1E
100
AcDbEntity
  8
PLAIN_
  6
SOLID
 62
     4
100
AcDbLine
 10
-346.518039839
 20
340.466080761
 30
0.0
 11
-346.518039839
 21
323.6282057909999
 31
0.0
  0
ARC
  5
3ED
330
1E
100
AcDbEntity
  8
PLAIN_
  6
SOLID
 62
     7
100
AcDbCircle
 10
-9.402661687
 20
365.808835685
 30
0.0
 40
121.0
100
AcDbArc
 50
341.999965684
 51
17.99998034599999
  0
LINE
  5
3EE
330
1E
100
AcDbEntity
  8
PLAIN_
  6
SOLID
 62
     7
100
AcDbLine
 10
-287.5177307279999
 20
267.4657897949999
 30
0.0
 11
-283.440046143
 21
266.465789744
 31
0.0
  0
LINE
  5
3EF
330
1E
100
AcDbEntity
  8
PLAIN_
  6
SOLID
 62
     7
100
AcDbLine
 10
-283.517730728
 20
254.465789795
 30
0.0
 11
-280.0536290979999
 21
260.4657897949999
 31
0.0
  0
LINE
  5
3F0
330
1E
100
AcDbEntity
  8
PLAIN_
  6
SOLID
 62
     7
100
AcDbLine
 10
-231.5177307279999
 20
281.9657897949999
 30
0.0
 11
-243.22687413
 21
281.9657897949999
 31
0.0
  0
LINE
  5
3F1
330
1E
100
AcDbEntity
  8
PLAIN_
  6
SOLID
 62
     4
100
AcDbLine
 10
-346.518039839
 20
340.466080761
 30
0.0
 11
-349.518039839
 21
342.198131569
 31
0.0
  0
ARC
  5
3F2
330
1E
100
AcDbEntity
  8
PLAIN_
  6
SOLID
 62
     7
100
AcDbCircle
 10
-260.0402310389999
 20
256.485090965
 30
0.0
 40
15.0
100
AcDbArc
 50
119.9999999999999
 51
152.417640344
  0
LINE
  5
3F3
330
1E
100
AcDbEntity
  8
PLAIN_
  6
SOLID
 62
     7
100
AcDbLine
 10
-248.2268741299999
 20
280.6260438329999
 30
0.0
 11
-267.5402310389999
 21
269.475472022
 31
0.0
  0
LINE
  5
3F4
330
1E
100
AcDbEntity
  8
PLAIN_
  6
SOLID
 62
     4
100
AcDbLine
 10
-352.518039839
 20
340.466080761
 30
0.0
 11
-346.518039839
 21
340.466080761
 31
0.0
  0
ARC
  5
3F5
330
1E
100
AcDbEntity
  8
PLAIN_
  6
SOLID
 62
     7
100
AcDbCircle
 10
-290.517730728
 20
244.4657897949999
 30
0.0
 40
3.0
100
AcDbArc
 50
90.0
 51
180.0001854059999
  0
LINE
  5
3F6
330
1E
100
AcDbEntity
  8
PLAIN_
  6
SOLID
 62
     4
100
AcDbLine
 10
-349.517716211
 20
320.4657884359999
 30
0.0
 11
-349.517716211
 21
324.4657884359999
 31
0.0
  0
ARC
  5
3F7
330
1E
100
AcDbEntity
  8
PLAIN_
  6
SOLID
 62
     7
100
AcDbCircle
 10
-248.517730728
 20
250.465789795
 30
0.0
 40
28.0
100
AcDbArc
 50
152.417640344
 51
170.130694932
  0
LINE
  5
3F8
330
1E
100
AcDbEntity
  8
PLAIN_
  6
SOLID
 62
     4
100
AcDbLine
 10
-348.018039839
 20
341.332106165
 30
0.0
 11
-348.018039839
 21
350.043325315
 31
0.0
  0
LINE
  5
3F9
330
1E
100
AcDbEntity
  8
PLAIN_
  6
CENTER
 62
     2
100
AcDbLine
 10
-349.518039839
 20
350.4909179019999
 30
0.0
 11
-349.518039839
 21
268.828723256
 31
0.0
  0
LINE
  5
3FA
330
1E
100
AcDbEntity
  8
PLAIN_
  6
SOLID
 62
     7
100
AcDbLine
 10
-214.517730728
 20
452.9657897949999
 30
0.0
 11
-209.517730728
 21
452.9657897949999
 31
0.0
  0
LINE
  5
3FB
330
1E
100
AcDbEntity
  8
PLAIN_
  6
SOLID
 62
     7
100
AcDbLine
 10
-214.517730728
 20
248.9657897949999
 30
0.0
 11
-226.47134428
 21
248.7809391399999
 31
0.0
  0
LINE
  5
3FC
330
1E
100
AcDbEntity
  8
PLAIN_
  6
SOLID
 62
     7
100
AcDbLine
 10
-214.517730728
 20
341.826457763
 30
0.0
 11
-214.517730728
 21
248.9657897949999
 31
0.0
  0
LINE
  5
3FD
330
1E
100
AcDbEntity
  8
PLAIN_
  6
SOLID
 62
     4
100
AcDbLine
 10
-351.018039839
 20
341.332106165
 30
0.0
 11
-351.018039839
 21
350.483998484
 31
0.0
  0
LINE
  5
3FE
330
1E
100
AcDbEntity
  8
PLAIN_
  6
SOLID
 62
     7
100
AcDbLine
 10
-290.664703384
 20
253.465789795
 30
0.0
 11
-287.5177307279999
 21
253.465789795
 31
0.0
  0
LINE
  5
3FF
330
1E
100
AcDbEntity
  8
PLAIN_
  6
SOLID
 62
     7
100
AcDbLine
 10
-289.497726455
 20
254.465789795
 30
0.0
 11
-283.517730728
 21
254.465789795
 31
0.0
  0
ARC
  5
400
330
1E
100
AcDbEntity
  8
PLAIN_
  6
SOLID
 62
     7
100
AcDbCircle
 10
-9.402661413999998
 20
365.808835614
 30
0.0
 40
87.5
100
AcDbArc
 50
87.24273424200001
 51
242.000001785
  0
LINE
  5
401
330
1E
100
AcDbEntity
  8
PLAIN_
  6
SOLID
 62
     7
100
AcDbLine
 10
-289.497726455
 20
266.4657897949999
 30
0.0
 11
-283.517730728
 21
266.4657897949999
 31
0.0
  0
ARC
  5
402
330
1E
100
AcDbEntity
  8
PLAIN_
  6
SOLID
 62
     7
100
AcDbCircle
 10
-226.517730728
 20
251.7805786129999
 30
0.0
 40
3.0
100
AcDbArc
 50
180.0
 51
270.885951199
  0
LINE
  5
403
330
1E
100
AcDbEntity
  8
PLAIN_
  6
SOLID
 62
     4
100
AcDbLine
 10
-354.376962731
 20
304.4657897949999
 30
0.0
 11
-354.376962731
 21
315.517081103
 31
0.0
  0
CIRCLE
  5
404
330
1E
100
AcDbEntity
  8
PLAIN_
  6
SOLID
 62
     7
100
AcDbCircle
 10
90.45826341200001
 20
333.36206711
 30
0.0
 40
11.0
  0
LINE
  5
405
330
1E
100
AcDbEntity
  8
PLAIN_
  6
SOLID
 62
     7
100
AcDbLine
 10
-290.664703384
 20
267.4657897949999
 30
0.0
 11
-287.5177307279999
 21
267.4657897949999
 31
0.0
  0
LINE
  5
406
330
1E
100
AcDbEntity
  8
PLAIN_
  6
SOLID
 62
     4
100
AcDbLine
 10
-344.6591169469999
 20
304.4657897949999
 30
0.0
 11
-344.6591169469999
 21
315.517081103
 31
0.0
  0
LINE
  5
407
330
1E
100
AcDbEntity
  8
PLAIN_
  6
SOLID
 62
     7
100
AcDbLine
 10
-214.517730728
 20
277.9657897949999
 30
0.0
 11
-209.517730728
 21
277.9657897949999
 31
0.0
  0
ARC
  5
408
330
1E
100
AcDbEntity
  8
PLAIN_
  6
SOLID
 62
     7
100
AcDbCircle
 10
-9.402664749999999
 20
365.808837728
 30
0.0
 40
121.0
100
AcDbArc
 50
18.000020057
 51
54.000034719
  0
ARC
  5
409
330
1E
100
AcDbEntity
  8
PLAIN_
  6
SOLID
 62
     7
100
AcDbCircle
 10
-9.402661413999998
 20
365.808835614
 30
0.0
 40
87.5
100
AcDbArc
 50
271.795227721
 51
26.32856164699999
  0
ARC
  5
40A
330
1E
100
AcDbEntity
  8
PLAIN_
  6
SOLID
 62
     7
100
AcDbCircle
 10
-9.402657449999999
 20
365.8088359409999
 30
0.0
 40
120.0
100
AcDbArc
 50
274.3017721919999
 51
187.0661427929999
  0
LINE
  5
40B
330
1E
100
AcDbEntity
  8
PLAIN_
  6
SOLID
 62
     4
100
AcDbLine
 10
-353.767289968
 20
304.4657897949999
 30
0.0
 11
-353.767289968
 21
322.9069508929999
 31
0.0
  0
CIRCLE
  5
40C
330
1E
100
AcDbEntity
  8
PLAIN_
  6
SOLID
 62
     7
100
AcDbCircle
 10
-84.933499501
 20
438.7477722929999
 30
0.0
 40
5.5
  0
LINE
  5
40D
330
1E
100
AcDbEntity
  8
PLAIN_
  6
SOLID
 62
     4
100
AcDbLine
 10
-354.376962731
 20
315.517081103
 30
0.0
 11
-353.767287854
 21
316.5730689669999
 31
0.0
  0
LINE
  5
40E
330
1E
100
AcDbEntity
  8
PLAIN_
  6
SOLID
 62
     4
100
AcDbLine
 10
-344.6591169469999
 20
315.517081103
 30
0.0
 11
-345.268791825
 21
316.5730689669999
 31
0.0
  0
ARC
  5
40F
330
1E
100
AcDbEntity
  8
PLAIN_
  6
SOLID
 62
     7
100
AcDbCircle
 10
-9.402661447999999
 20
365.8088359409999
 30
0.0
 40
121.0
100
AcDbArc
 50
269.9999653319999
 51
305.9999799939999
  0
LINE
  5
410
330
1E
100
AcDbEntity
  8
PLAIN_
  6
SOLID
 62
     4
100
AcDbLine
 10
-354.3769648459999
 20
315.517081103
 30
0.0
 11
-344.659114833
 21
315.517081103
 31
0.0
  0
LINE
  5
411
330
1E
100
AcDbEntity
  8
PLAIN_
  6
SOLID
 62
     4
100
AcDbLine
 10
-345.26878971
 20
304.4657897949999
 30
0.0
 11
-345.26878971
 21
322.9069508929999
 31
0.0
  0
LINE
  5
412
330
1E
100
AcDbEntity
  8
PLAIN_
  6
SOLID
 62
     4
100
AcDbLine
 10
-353.76706405
 20
322.907081327
 30
0.0
 11
-345.2685637919999
 21
322.907081327
 31
0.0
  0
LINE
  5
413
330
1E
100
AcDbEntity
  8
PLAIN_
  6
SOLID
 62
     4
100
AcDbLine
 10
-352.518039839
 20
323.6282057909999
 30
0.0
 11
-353.767289968
 21
322.9069508929999
 31
0.0
  0
LINE
  5
414
330
1E
100
AcDbEntity
  8
PLAIN_
  6
SOLID
 62
     4
100
AcDbLine
 10
-346.518039839
 20
323.6282057909999
 30
0.0
 11
-345.26878971
 21
322.9069508929999
 31
0.0
  0
LINE
  5
415
330
1E
100
AcDbEntity
  8
PLAIN_
  6
SOLID
 62
     4
100
AcDbLine
 10
-362.518039839
 20
304.4657897949999
 30
0.0
 11
-336.5177165069999
 21
304.4657897949999
 31
0.0
  0
LINE
  5
416
330
1E
100
AcDbEntity
  8
PLAIN_
  6
SOLID
 62
     7
100
AcDbLine
 10
-244.8204298349999
 20
484.3015790259999
 30
0.0
 11
-290.560155892
 21
485.099970405
 31
0.0
  0
LINE
  5
417
330
1E
100
AcDbEntity
  8
PLAIN_
  6
SOLID
 62
     7
100
AcDbLine
 10
-214.517730728
 20
391.175953348
 30
0.0
 11
-214.517730728
 21
470.466110229
 31
0.0
  0
LINE
  5
418
330
1E
100
AcDbEntity
  8
PLAIN_
  6
SOLID
 62
     7
100
AcDbLine
 10
-283.517730728
 20
266.4657897949999
 30
0.0
 11
-280.0536290979999
 21
260.4657897949999
 31
0.0
  0
LINE
  5
419
330
1E
100
AcDbEntity
  8
PLAIN_
  6
SOLID
 62
     7
100
AcDbLine
 10
-283.517730728
 20
266.4657897949999
 30
0.0
 11
-283.517730728
 21
254.465789795
 31
0.0
  0
LINE
  5
41A
330
1E
100
AcDbEntity
  8
PLAIN_
  6
SOLID
 62
     7
100
AcDbLine
 10
-290.517730728
 20
247.465789795
 30
0.0
 11
-288.0177307279999
 21
247.465789795
 31
0.0
  0
ARC
  5
41B
330
1E
100
AcDbEntity
  8
PLAIN_
  6
SOLID
 62
     7
100
AcDbCircle
 10
-288.0177307279999
 20
260.4657897949999
 30
0.0
 40
13.0
100
AcDbArc
 50
270.0000396959999
 51
336.418192556
  0
LINE
  5
41C
330
1E
100
AcDbEntity
  8
PLAIN_
  6
SOLID
 62
     7
100
AcDbLine
 10
-287.5177307279999
 20
267.4657897949999
 30
0.0
 11
-287.5177307279999
 21
253.465789795
 31
0.0
  0
ARC
  5
41D
330
1E
100
AcDbEntity
  8
PLAIN_
  6
SOLID
 62
     7
100
AcDbCircle
 10
-9.402657449999999
 20
365.8088359409999
 30
0.0
 40
121.0
100
AcDbArc
 50
234.0000193529999
 51
270.0000340149999
  0
LINE
  5
41E
330
1E
100
AcDbEntity
  8
PLAIN_
  6
SOLID
 62
     4
100
AcDbLine
 10
-362.518039839
 20
304.4657897949999
 30
0.0
 11
-362.518039839
 21
302.96577433
 31
0.0
  0
CIRCLE
  5
41F
330
1E
100
AcDbEntity
  8
PLAIN_
  6
SOLID
 62
     2
100
AcDbCircle
 10
-9.402696608999999
 20
313.308844566
 30
0.0
 40
9.0
  0
INSERT
  5
420
330
1E
100
AcDbEntity
  8
PLAIN_
100
AcDbBlockReference
  2
*D3
 10
0.0
 20
0.0
 30
0.0
  0
LINE
  5
421
330
1E
100
AcDbEntity
  8
PLAIN_
  6
SOLID
 62
     3
100
AcDbLine
 10
-5.856660152999999
 20
249.671191629
 30
0.0
 11
8.242706882
 21
249.671191629
 31
0.0
  0
ARC
  5
422
330
1E
100
AcDbEntity
  8
PLAIN_
  6
SOLID
 62
     7
100
AcDbCircle
 10
-9.402661516
 20
365.808835378
 30
0.0
 40
121.0
100
AcDbArc
 50
53.99996560100001
 51
89.99995294200001
  0
CIRCLE
  5
423
330
1E
100
AcDbEntity
  8
PLAIN_
  6
SOLID
 62
     2
100
AcDbCircle
 10
-9.402687454
 20
260.8088561459999
 30
0.0
 40
9.0
  0
CIRCLE
  5
424
330
1E
100
AcDbEntity
  8
PLAIN_
  6
SOLID
 62
     2
100
AcDbCircle
 10
-40.261419296
 20
408.2822637559999
 30
0.0
 40
9.0
  0
LINE
  5
425
330
1E
100
AcDbEntity
  8
PLAIN_
  6
SOLID
 62
     2
100
AcDbLine
 10
-35.30330467199999
 20
405.419707298
 30
0.0
 11
-40.261404071
 21
402.557127823
 31
0.0
  0
LINE
  5
426
330
1E
100
AcDbEntity
  8
PLAIN_
  6
SOLID
 62
     4
100
AcDbLine
 10
-336.5177165069999
 20
299.629255942
 30
0.0
 11
-336.5177165069999
 21
304.4657897949999
 31
0.0
  0
ARC
  5
427
330
1E
100
AcDbEntity
  8
PLAIN_
  6
SOLID
 62
     7
100
AcDbCircle
 10
-9.402660452000001
 20
365.808839486
 30
0.0
 40
121.0
100
AcDbArc
 50
306.0000197049999
 51
342.000034367
  0
LINE
  5
428
330
1E
100
AcDbEntity
  8
PLAIN_
  6
SOLID
 62
     2
100
AcDbLine
 10
-40.261404037
 20
402.557127953
 30
0.0
 11
-45.21951851999999
 21
405.4196995709999
 31
0.0
  0
LINE
  5
429
330
1E
100
AcDbEntity
  8
PLAIN_
  6
SOLID
 62
     2
100
AcDbLine
 10
-45.219518661
 20
405.4196996689999
 30
0.0
 11
-45.21953392
 21
411.144827843
 31
0.0
  0
LINE
  5
42A
330
1E
100
AcDbEntity
  8
PLAIN_
  6
SOLID
 62
     2
100
AcDbLine
 10
-45.219518661
 20
411.144827843
 30
0.0
 11
-40.261434812
 21
414.007399418
 31
0.0
  0
LINE
  5
42B
330
1E
100
AcDbEntity
  8
PLAIN_
  6
SOLID
 62
     4
100
AcDbLine
 10
-362.518039839
 20
302.96577433
 30
0.0
 11
-377.517730713
 21
302.96577433
 31
0.0
  0
ARC
  5
42C
330
1E
100
AcDbEntity
  8
PLAIN_
  6
SOLID
 62
     7
100
AcDbCircle
 10
-91.31800145099999
 20
308.451086088
 30
0.0
 40
6.580000401
100
AcDbArc
 50
113.63811955
 51
44.50443010999999
  0
ARC
  5
42D
330
1E
100
AcDbEntity
  8
PLAIN_
  6
CENTER
 62
     2
100
AcDbCircle
 10
-9.402796498999999
 20
365.8087310209999
 30
0.0
 40
100.0
100
AcDbArc
 50
209.938676587
 51
226.3295660559999
  0
INSERT
  5
42E
330
1E
100
AcDbEntity
  8
PLAIN_
100
AcDbBlockReference
  2
*D4
 10
0.0
 20
0.0
 30
0.0
  0
LINE
  5
42F
330
1E
100
AcDbEntity
  8
PLAIN_
  6
SOLID
 62
     2
100
AcDbLine
 10
-40.261419296
 20
414.0073995589999
 30
0.0
 11
-35.303319913
 21
411.144843038
 31
0.0
  0
LINE
  5
430
330
1E
100
AcDbEntity
  8
PLAIN_
  6
SOLID
 62
     2
100
AcDbLine
 10
-35.30330467199999
 20
411.144827843
 30
0.0
 11
-35.30330467199999
 21
405.4196996689999
 31
0.0
  0
CIRCLE
  5
431
330
1E
100
AcDbEntity
  8
PLAIN_
  6
SOLID
 62
     2
100
AcDbCircle
 10
21.45602417
 20
408.2822637559999
 30
0.0
 40
9.0
  0
LINE
  5
432
330
1E
100
AcDbEntity
  8
PLAIN_
  6
SOLID
 62
     2
100
AcDbLine
 10
26.41413879399999
 20
405.419707298
 30
0.0
 11
21.456039395
 21
402.557127823
 31
0.0
  0
LINE
  5
433
330
1E
100
AcDbEntity
  8
PLAIN_
  6
SOLID
 62
     2
100
AcDbLine
 10
21.456039429
 20
402.557127953
 30
0.0
 11
16.49792494599999
 21
405.4196995709999
 31
0.0
  0
LINE
  5
434
330
1E
100
AcDbEntity
  8
PLAIN_
  6
SOLID
 62
     2
100
AcDbLine
 10
16.497924805
 20
405.4196996689999
 30
0.0
 11
16.497909546
 21
411.144827843
 31
0.0
  0
LINE
  5
435
330
1E
100
AcDbEntity
  8
PLAIN_
  6
CENTER
 62
     2
100
AcDbLine
 10
-77.842115945
 20
317.88713307
 30
0.0
 11
-111.92559849
 21
294.0216209659999
 31
0.0
  0
LINE
  5
436
330
1E
100
AcDbEntity
  8
PLAIN_
  6
SOLID
 62
     2
100
AcDbLine
 10
16.497924805
 20
411.144827843
 30
0.0
 11
21.456008654
 21
414.007399418
 31
0.0
  0
LINE
  5
437
330
1E
100
AcDbEntity
  8
PLAIN_
  6
SOLID
 62
     2
100
AcDbLine
 10
21.45602417
 20
414.0073995589999
 30
0.0
 11
26.41412355399999
 21
411.144843038
 31
0.0
  0
LINE
  5
438
330
1E
100
AcDbEntity
  8
PLAIN_
  6
SOLID
 62
     2
100
AcDbLine
 10
-4.44457283
 20
257.946299688
 30
0.0
 11
-9.402672229
 21
255.0837202119999
 31
0.0
  0
LINE
  5
439
330
1E
100
AcDbEntity
  8
PLAIN_
  6
SOLID
 62
     2
100
AcDbLine
 10
26.41413879399999
 20
411.144827843
 30
0.0
 11
26.41413879399999
 21
405.4196996689999
 31
0.0
  0
CIRCLE
  5
43A
330
1E
100
AcDbEntity
  8
PLAIN_
  6
SOLID
 62
     2
100
AcDbCircle
 10
40.527769089
 20
349.585455894
 30
0.0
 40
9.0
  0
LINE
  5
43B
330
1E
100
AcDbEntity
  8
PLAIN_
  6
SOLID
 62
     2
100
AcDbLine
 10
45.485883713
 20
346.7228994369999
 30
0.0
 11
40.527784314
 21
343.8603199609999
 31
0.0
  0
ARC
  5
43C
330
1E
100
AcDbEntity
  8
PLAIN_
  6
SOLID
 62
     7
100
AcDbCircle
 10
-9.40266113
 20
365.808835794
 30
0.0
 40
121.0
100
AcDbArc
 50
210.963676186
 51
233.999980647
  0
ARC
  5
43D
330
1E
100
AcDbEntity
  8
PLAIN_
  6
SOLID
 62
     7
100
AcDbCircle
 10
-9.402659893999999
 20
365.8088319919999
 30
0.0
 40
121.0
100
AcDbArc
 50
162.0000207609999
 51
187.0156655479999
  0
LINE
  5
43E
330
1E
100
AcDbEntity
  8
PLAIN_
  6
SOLID
 62
     2
100
AcDbLine
 10
40.527784348
 20
343.860320091
 30
0.0
 11
35.569669865
 21
346.722891709
 31
0.0
  0
LINE
  5
43F
330
1E
100
AcDbEntity
  8
PLAIN_
  6
SOLID
 62
     2
100
AcDbLine
 10
35.569669724
 20
346.722891808
 30
0.0
 11
35.569654465
 21
352.4480199809999
 31
0.0
  0
CIRCLE
  5
440
330
1E
100
AcDbEntity
  8
PLAIN_
  6
SOLID
 62
     7
100
AcDbCircle
 10
-71.12011578100001
 20
450.7556009059999
 30
0.0
 40
11.0
  0
LINE
  5
441
330
1E
100
AcDbEntity
  8
PLAIN_
  6
SOLID
 62
     2
100
AcDbLine
 10
35.569669724
 20
352.4480199809999
 30
0.0
 11
40.527753573
 21
355.3105915559999
 31
0.0
  0
ARC
  5
442
330
1E
100
AcDbEntity
  8
PLAIN_
  6
SOLID
 62
     7
100
AcDbCircle
 10
-9.402661172
 20
365.808835445
 30
0.0
 40
121.0
100
AcDbArc
 50
125.999965672
 51
161.9999803339999
  0
LINE
  5
443
330
1E
100
AcDbEntity
  8
PLAIN_
  6
SOLID
 62
     2
100
AcDbLine
 10
40.527769089
 20
355.310591698
 30
0.0
 11
45.485868472
 21
352.4480351769999
 31
0.0
  0
ARC
  5
444
330
1E
100
AcDbEntity
  8
PLAIN_
  6
SOLID
 62
     7
100
AcDbCircle
 10
-9.402664405999999
 20
365.808833096
 30
0.0
 40
121.0
100
AcDbArc
 50
90.00002040899998
 51
126.0000350709999
  0
LINE
  5
445
330
1E
100
AcDbEntity
  8
PLAIN_
  6
SOLID
 62
     2
100
AcDbLine
 10
45.485883713
 20
352.4480199809999
 30
0.0
 11
45.485883713
 21
346.722891808
 31
0.0
  0
CIRCLE
  5
446
330
1E
100
AcDbEntity
  8
PLAIN_
  6
SOLID
 62
     2
100
AcDbCircle
 10
-59.333124161
 20
349.5855817789999
 30
0.0
 40
9.0
  0
LINE
  5
447
330
1E
100
AcDbEntity
  8
PLAIN_
  6
SOLID
 62
     2
100
AcDbLine
 10
-54.37500953699999
 20
346.7230253219999
 30
0.0
 11
-59.33310893499999
 21
343.8604458459999
 31
0.0
  0
LINE
  5
448
330
1E
100
AcDbEntity
  8
PLAIN_
  6
SOLID
 62
     2
100
AcDbLine
 10
-59.333108902
 20
343.860445976
 30
0.0
 11
-64.29122338399999
 21
346.723017594
 31
0.0
  0
CIRCLE
  5
449
330
1E
100
AcDbEntity
  8
PLAIN_
  6
SOLID
 62
     7
100
AcDbCircle
 10
-9.402649862
 20
260.8088494149999
 30
0.0
 40
11.0
  0
LINE
  5
44A
330
1E
100
AcDbEntity
  8
PLAIN_
  6
SOLID
 62
     2
100
AcDbLine
 10
-64.29122352600001
 20
346.723017693
 30
0.0
 11
-64.291238785
 21
352.4481458659999
 31
0.0
  0
LINE
  5
44B
330
1E
100
AcDbEntity
  8
PLAIN_
  6
SOLID
 62
     2
100
AcDbLine
 10
-64.29122352600001
 20
352.4481458659999
 30
0.0
 11
-59.333139676
 21
355.310717441
 31
0.0
  0
LINE
  5
44C
330
1E
100
AcDbEntity
  8
PLAIN_
  6
SOLID
 62
     2
100
AcDbLine
 10
-59.333124161
 20
355.310717583
 30
0.0
 11
-54.375024777
 21
352.448161062
 31
0.0
  0
LINE
  5
44D
330
1E
100
AcDbEntity
  8
PLAIN_
  6
SOLID
 62
     2
100
AcDbLine
 10
-54.37500953699999
 20
352.4481458659999
 30
0.0
 11
-54.37500953699999
 21
346.723017693
 31
0.0
  0
LINE
  5
44E
330
1E
100
AcDbEntity
  8
PLAIN_
  6
CENTER
 62
     2
100
AcDbLine
 10
-43.90266227699999
 20
291.9547271729999
 30
0.0
 11
-43.90266227699999
 21
314.236465454
 31
0.0
  0
LINE
  5
44F
330
1E
100
AcDbEntity
  8
PLAIN_
  6
CENTER
 62
     2
100
AcDbLine
 10
25.097337723
 20
292.4462356569999
 30
0.0
 11
25.097337723
 21
314.236465454
 31
0.0
  0
ARC
  5
450
330
1E
100
AcDbEntity
  8
PLAIN_
  6
SOLID
 62
     4
100
AcDbCircle
 10
46.50716209399999
 20
378.1919860839999
 30
0.0
 40
2.0
100
AcDbArc
 50
108.000032147
 51
197.9999868409999
  0
LINE
  5
451
330
1E
100
AcDbEntity
  8
PLAIN_
  6
SOLID
 62
     4
100
AcDbLine
 10
46.922674179
 20
370.441040039
 30
0.0
 11
38.88823137
 21
395.168502823
 31
0.0
  0
LINE
  5
452
330
1E
100
AcDbEntity
  8
PLAIN_
  6
SOLID
 62
     4
100
AcDbLine
 10
-70.66811561600001
 20
387.2923889159999
 30
0.0
 11
-55.540895368
 21
382.377227948
 31
0.0
  0
ARC
  5
453
330
1E
100
AcDbEntity
  8
PLAIN_
  6
SOLID
 62
     4
100
AcDbCircle
 10
-9.402662277000001
 20
365.808837891
 30
0.0
 40
50.0
100
AcDbArc
 50
18.000026
 51
33.872429405
  0
CIRCLE
  5
454
330
1E
100
AcDbEntity
  8
PLAIN_
  6
SOLID
 62
     7
100
AcDbCircle
 10
52.31477149899999
 20
450.755616433
 30
0.0
 40
11.0
  0
ARC
  5
455
330
1E
100
AcDbEntity
  8
PLAIN_
  6
SOLID
 62
     4
100
AcDbCircle
 10
44.564073563
 20
364.4173660279999
 30
0.0
 40
3.0
100
AcDbArc
 50
108.0000936189999
 51
211.131011859
  0
ARC
  5
456
330
1E
100
AcDbEntity
  8
PLAIN_
  6
SOLID
 62
     4
100
AcDbCircle
 10
33.439424515
 20
398.655391693
 30
0.0
 40
3.0
100
AcDbArc
 50
184.869289671
 51
288.0000713069999
  0
ARC
  5
457
330
1E
100
AcDbEntity
  8
PLAIN_
  6
SOLID
 62
     4
100
AcDbCircle
 10
36.98611640899999
 20
394.5504684449999
 30
0.0
 40
2.0
100
AcDbArc
 50
18.000015983
 51
108.000025317
  0
ARC
  5
458
330
1E
100
AcDbEntity
  8
PLAIN_
  6
SOLID
 62
     4
100
AcDbCircle
 10
45.020555496
 20
369.8229980469999
 30
0.0
 40
2.0
100
AcDbArc
 50
288.000262553
 51
18.000039661
  0
LINE
  5
459
330
1E
100
AcDbEntity
  8
PLAIN_
  6
SOLID
 62
     4
100
AcDbLine
 10
43.637025833
 20
367.27053833
 30
0.0
 11
45.638597532
 21
367.920883206
 31
0.0
  0
LINE
  5
45A
330
1E
100
AcDbEntity
  8
PLAIN_
  6
SOLID
 62
     4
100
AcDbLine
 10
34.366472244
 20
395.802219391
 30
0.0
 11
36.36808207099999
 21
396.452583329
 31
0.0
  0
CIRCLE
  5
45B
330
1E
100
AcDbEntity
  8
PLAIN_
  6
SOLID
 62
     7
100
AcDbCircle
 10
83.30670705199999
 20
316.514107313
 30
0.0
 40
5.5
  0
LWPOLYLINE
  5
45C
330
1E
100
AcDbEntity
  8
PLAIN_
  6
SOLID
 62
     4
100
AcDbPolyline
 90
       18
 70
     0
 43
0.0
 10
40.396730423
 20
407.5822753909999
 10
37.892604589
 20
410.0242468119999
 10
36.62192115199999
 20
411.224267706
 10
35.328893661
 20
412.3991308209999
 10
34.006074339
 20
413.54045023
 10
32.64601540599999
 20
414.6398400069999
 10
31.241269082
 20
415.6889142249999
 10
30.519810718
 20
416.191962397
 10
29.784387589
 20
416.679286957
 10
28.688137174
 20
417.352586985
 10
28.127164766
 20
417.665390104
 10
27.557074547
 20
417.956668854
 10
26.97745175699999
 20
418.222203404
 10
26.387881637
 20
418.457773924
 10
25.787949428
 20
418.659160584
 10
25.17724037199999
 20
418.822143555
 10
24.279241562
 20
418.990474463
 10
23.36961555499999
 20
419.1145210269999
  0
LINE
  5
470
330
1E
100
AcDbEntity
  8
PLAIN_
  6
SOLID
 62
     4
100
AcDbLine
 10
53.407888412
 20
382.537109375
 30
0.0
 11
45.88912023299999
 21
380.0941010469999
 31
0.0
  0
LINE
  5
471
330
1E
100
AcDbEntity
  8
PLAIN_
  6
SOLID
 62
     4
100
AcDbLine
 10
-72.213209152
 20
382.537109375
 30
0.0
 11
-57.085988904
 21
377.6219484069999
 31
0.0
  0
LWPOLYLINE
  5
472
330
1E
100
AcDbEntity
  8
PLAIN_
  6
SOLID
 62
     4
100
AcDbPolyline
 90
       18
 70
     0
 43
0.0
 10
-59.20205497699999
 20
407.5822753909999
 10
-56.697929144
 20
410.0242468119999
 10
-55.427245706
 20
411.224267706
 10
-54.134218216
 20
412.3991308209999
 10
-52.81139889399999
 20
413.54045023
 10
-51.45133996
 20
414.6398400069999
 10
-50.046593636
 20
415.6889142249999
 10
-49.325135272
 20
416.191962397
 10
-48.589712143
 20
416.679286957
 10
-47.493461728
 20
417.352586985
 10
-46.932489321
 20
417.665390104
 10
-46.362399101
 20
417.956668854
 10
-45.782776311
 20
418.222203404
 10
-45.193206191
 20
418.457773924
 10
-44.593273982
 20
418.659160584
 10
-43.982564926
 20
418.822143555
 10
-43.084566116
 20
418.990474463
 10
-42.174940109
 20
419.1145210269999
  0
ARC
  5
486
330
1E
100
AcDbEntity
  8
PLAIN_
  6
SOLID
 62
     7
100
AcDbCircle
 10
43.030926941
 20
432.073247178
 30
0.0
 40
3.0
100
AcDbArc
 50
309.000003727
 51
51.646531951
  0
CIRCLE
  5
487
330
1E
100
AcDbEntity
  8
PLAIN_
  6
SOLID
 62
     4
100
AcDbCircle
 10
-9.402662277000001
 20
365.808837891
 30
0.0
 40
19.0
  0
TEXT
  5
488
330
1E
100
AcDbEntity
  8
PLAIN_
  6
SOLID
 62
     4
100
AcDbText
 10
23.56142044099999
 20
316.3663330079999
 30
0.0
 40
5.0
  1
A
 50
0.00000683
 41
0.6666153910000001
100
AcDbText
  0
TEXT
  5
489
330
1E
100
AcDbEntity
  8
PLAIN_
  6
SOLID
 62
     4
100
AcDbText
 10
-45.08600235
 20
317.513183594
 30
0.0
 40
5.0
  1
B
 50
0.00000683
 41
0.5832307820000001
100
AcDbText
  0
LINE
  5
48A
330
1E
100
AcDbEntity
  8
PLAIN_
  6
SOLID
 62
     2
100
AcDbLine
 10
-9.402672196000001
 20
255.083720342
 30
0.0
 11
-14.360786678
 21
257.94629196
 31
0.0
  0
LINE
  5
48B
330
1E
100
AcDbEntity
  8
PLAIN_
  6
SOLID
 62
     2
100
AcDbLine
 10
-14.36078681999999
 20
257.946292059
 30
0.0
 11
-14.360802079
 21
263.6714202329999
 31
0.0
  0
LINE
  5
48C
330
1E
100
AcDbEntity
  8
PLAIN_
  6
L_DASH
 62
     7
100
AcDbLine
 10
-14.14856724
 20
340.5736970139999
 30
0.0
 11
-12.301813744
 21
347.980621454
 31
0.0
  0
LINE
  5
48D
330
1E
100
AcDbEntity
  8
PLAIN_
  6
SOLID
 62
     4
100
AcDbLine
 10
-12.402662277
 20
421.808837891
 30
0.0
 11
-9.402662181
 21
426.8088380519999
 31
0.0
  0
LINE
  5
48E
330
1E
100
AcDbEntity
  8
PLAIN_
  6
SOLID
 62
     7
100
AcDbLine
 10
-45.558898469
 20
297.8088378909999
 30
0.0
 11
-50.481420751
 21
288.550919959
 31
0.0
  0
LINE
  5
48F
330
1E
100
AcDbEntity
  8
PLAIN_
  6
SOLID
 62
     4
100
AcDbLine
 10
-6.402662277
 20
421.808837891
 30
0.0
 11
-12.402662277
 21
421.808837891
 31
0.0
  0
LINE
  5
490
330
1E
100
AcDbEntity
  8
PLAIN_
  6
SOLID
 62
     4
100
AcDbLine
 10
-9.402662277000001
 20
426.8088378909999
 30
0.0
 11
-6.402662181
 21
421.8088377299999
 31
0.0
  0
ARC
  5
491
330
1E
100
AcDbEntity
  8
PLAIN_
  6
SOLID
 62
     4
100
AcDbCircle
 10
-19.902662277
 20
299.308837891
 30
0.0
 40
2.0
100
AcDbArc
 50
90.00001798600001
 51
180.0
  0
LINE
  5
492
330
1E
100
AcDbEntity
  8
PLAIN_
  6
L_DASH
 62
     7
100
AcDbLine
 10
-15.212700948
 20
348.706387144
 30
0.0
 11
-12.30181374799999
 21
347.980621524
 31
0.0
  0
LINE
  5
493
330
1E
100
AcDbEntity
  8
PLAIN_
  6
L_DASH
 62
     7
100
AcDbLine
 10
-13.547734585
 20
349.1838020019999
 30
0.0
 11
-12.301811969
 21
347.980628573
 31
0.0
  0
LINE
  5
494
330
1E
100
AcDbEntity
  8
PLAIN_
  6
L_DASH
 62
     7
100
AcDbLine
 10
-14.148567225
 20
340.573697063
 30
0.0
 11
-12.902623681
 21
339.3705034239999
 31
0.0
  0
LINE
  5
495
330
1E
100
AcDbEntity
  8
PLAIN_
  6
L_DASH
 62
     7
100
AcDbLine
 10
-18.72439801999999
 20
340.822034754
 30
0.0
 11
-12.902623707
 21
339.370503534
 31
0.0
  0
LINE
  5
496
330
1E
100
AcDbEntity
  8
PLAIN_
  6
L_DASH
 62
     7
100
AcDbLine
 10
-17.05945794299999
 20
341.2994486719999
 30
0.0
 11
-14.148570763
 21
340.5736830559999
 31
0.0
  0
LINE
  5
497
330
1E
100
AcDbEntity
  8
PLAIN_
  6
L_DASH
 62
     7
100
AcDbLine
 10
-16.976146498
 20
323.0324941719999
 30
0.0
 11
-12.902623697
 21
339.370503363
 31
0.0
  0
LINE
  5
498
330
1E
100
AcDbEntity
  8
PLAIN_
  6
L_DASH
 62
     7
100
AcDbLine
 10
-20.036344384
 20
305.594903782
 30
0.0
 11
-15.938502028
 21
322.0304525799999
 31
0.0
  0
LINE
  5
499
330
1E
100
AcDbEntity
  8
PLAIN_
  6
L_DASH
 62
     7
100
AcDbLine
 10
-24.18430979
 20
324.08649772
 30
0.0
 11
-15.93825128699999
 21
322.030524523
 31
0.0
  0
LINE
  5
49A
330
1E
100
AcDbEntity
  8
PLAIN_
  6
L_DASH
 62
     7
100
AcDbLine
 10
-16.976156741
 20
323.0325041039999
 30
0.0
 11
-15.93850202
 21
322.030452611
 31
0.0
  0
LINE
  5
49B
330
1E
100
AcDbEntity
  8
PLAIN_
  6
L_DASH
 62
     7
100
AcDbLine
 10
-22.797931129
 20
324.4840354139999
 30
0.0
 11
-16.97614476599999
 21
323.0325011179999
 31
0.0
  0
LINE
  5
49C
330
1E
100
AcDbEntity
  8
PLAIN_
  6
L_DASH
 62
     7
100
AcDbLine
 10
-19.444781489
 20
305.447410587
 30
0.0
 11
-16.771302649
 21
316.170149074
 31
0.0
  0
LINE
  5
49D
330
1E
100
AcDbEntity
  8
PLAIN_
  6
L_DASH
 62
     7
100
AcDbLine
 10
-16.771302644
 20
316.170149093
 30
0.0
 11
-17.10740099999999
 21
317.3422633029999
 31
0.0
  0
LINE
  5
49E
330
1E
100
AcDbEntity
  8
PLAIN_
  6
L_DASH
 62
     7
100
AcDbLine
 10
-26.200488979
 20
318.5211091749999
 30
0.0
 11
-16.77130061599999
 21
316.170148588
 31
0.0
  0
ARC
  5
49F
330
1E
100
AcDbEntity
  8
PLAIN_
  6
L_DASH
 62
     7
100
AcDbCircle
 10
-21.21903319599999
 20
318.4180578609999
 30
0.0
 40
17.834837809
100
AcDbArc
 50
208.926613707
 51
302.0397740559999
  0
LWPOLYLINE
  5
4A0
330
1E
100
AcDbEntity
  8
PLAIN_
  6
L_DASH
 62
     7
100
AcDbPolyline
 90
       36
 70
     0
 43
0.0
 10
-22.071150513
 20
304.468088834
 10
-22.584056046
 20
304.7078933129999
 10
-23.14323896599999
 20
304.930833477
 10
-23.737241496
 20
305.1323412369999
 10
-24.353892399
 20
305.308287655
 10
-24.980556366
 20
305.4550675509999
 10
-25.60439291999999
 20
305.569673374
 10
-26.212619515
 20
305.649756827
 10
-26.792773461
 20
305.693676983
 10
-27.33296728
 20
305.700533908
 10
-27.82213228499999
 20
305.670187102
 10
-28.250245381
 20
305.6032583789999
 10
-28.60853444099999
 20
305.5011191209999
 10
-28.889658044
 20
305.3658621829999
 10
-29.087855909
 20
305.20025901
 10
-29.154519695
 20
305.107115505
 10
-29.19906691899999
 20
305.0077028459999
 10
-29.221269093
 20
304.9025309329999
 10
-29.22101233699999
 20
304.792139206
 10
-29.19829797
 20
304.6770938799999
 10
-29.15324249699999
 20
304.5579850369999
 10
-28.99714601699999
 20
304.3100382059999
 10
-28.75592134699999
 20
304.053379198
 10
-28.43451123199999
 20
303.793267009
 10
-28.039501433
 20
303.535031394
 10
-27.578985786
 20
303.2839636549999
 10
-27.062400353
 20
303.045208224
 10
-26.50033008099999
 20
302.82365725
 10
-25.904291909
 20
302.62385036
 10
-25.286498785
 20
302.4498816399999
 10
-24.659609422
 20
302.3053157449999
 10
-24.036468916
 20
302.193114862
 10
-23.429845549
 20
302.1155780109999
 10
-22.852169163
 20
302.0742939369999
 10
-22.315276469
 20
302.0701085609999
 10
-21.830168513
 20
302.1031076419999
  0
LWPOLYLINE
  5
4C6
330
1E
100
AcDbEntity
  8
PLAIN_
  6
L_DASH
 62
     7
100
AcDbPolyline
 90
       37
 70
     0
 43
0.0
 10
-25.084489745
 20
302.914555187
 10
-24.258050017
 20
302.737076075
 10
-23.45343667499999
 20
302.6207215059999
 10
-22.70589337
 20
302.569714395
 10
-22.050366264
 20
302.5844090459999
 10
-21.52203539099999
 20
302.659194772
 10
-21.316951569
 20
302.714323974
 10
-21.157397142
 20
302.7758940879999
 10
-20.985554703
 20
302.8856562059999
 10
-20.96138494499999
 20
302.917163382
 10
-20.96793385299999
 20
302.956329581
 10
-21.068131532
 20
303.1339189149999
 10
-21.180104315
 20
303.263188362
 10
-21.335300992
 20
303.408145577
 10
-21.766679701
 20
303.722213764
 10
-22.338577068
 20
304.0429396909999
 10
-23.022565026
 20
304.348853392
 10
-23.787621607
 20
304.62386147
 10
-24.600645978
 20
304.8551466459999
 10
-25.427085707
 20
305.032625759
 10
-26.231699048
 20
305.1489803269999
 10
-26.979242354
 20
305.1999874379999
 10
-27.63476946
 20
305.1852927869999
 10
-28.163100333
 20
305.1105070609999
 10
-28.368184154
 20
305.055377859
 10
-28.52773858099999
 20
304.9938077459999
 10
-28.69958102
 20
304.884045627
 10
-28.723750779
 20
304.8525384509999
 10
-28.717201871
 20
304.813372252
 10
-28.61700419199999
 20
304.635782918
 10
-28.505031409
 20
304.506513471
 10
-28.34983473199999
 20
304.3615562559999
 10
-27.91845602199999
 20
304.0474880699999
 10
-27.346558655
 20
303.7267621419999
 10
-26.662570698
 20
303.4208484409999
 10
-25.897514117
 20
303.1458403629999
 10
-25.084489745
 20
302.914555187
  0
ARC
  5
4ED
330
1E
100
AcDbEntity
  8
PLAIN_
  6
SOLID
 62
     7
100
AcDbCircle
 10
-21.584744005
 20
316.951271919
 30
0.0
 40
48.534837812
100
AcDbArc
 50
237.53982025
 51
274.461408228
  0
ARC
  5
4EE
330
1E
100
AcDbEntity
  8
PLAIN_
  6
SOLID
 62
     7
100
AcDbCircle
 10
-21.584744005
 20
316.951271919
 30
0.0
 40
38.53483781199999
100
AcDbArc
 50
234.231439899
 51
291.895708362
  0
ARC
  5
4EF
330
1E
100
AcDbEntity
  8
PLAIN_
  6
SOLID
 62
     7
100
AcDbCircle
 10
-21.584744005
 20
316.951271919
 30
0.0
 40
28.53483781199999
100
AcDbArc
 50
228.470054849
 51
295.789251913
  0
LINE
  5
4F0
330
1E
100
AcDbEntity
  8
PLAIN_
  6
SOLID
 62
     7
100
AcDbLine
 10
-39.883099348
 20
297.294821486
 30
0.0
 11
-55.64365496
 21
253.9930492679999
 31
0.0
  0
ARC
  5
4F1
330
1E
100
AcDbEntity
  8
PLAIN_
  6
SOLID
 62
     7
100
AcDbCircle
 10
66.315806017
 20
403.3188665309999
 30
0.0
 40
3.0
100
AcDbArc
 50
26.353566114
 51
129.000003727
  0
LINE
  5
4F2
330
1E
100
AcDbEntity
  8
PLAIN_
  6
L_DASH
 62
     7
100
AcDbLine
 10
-36.77321811199999
 20
309.767875082
 30
0.0
 11
-39.883099348
 21
297.294821486
 31
0.0
  0
ARC
  5
4F3
330
1E
100
AcDbEntity
  8
PLAIN_
  6
SOLID
 62
     4
100
AcDbCircle
 10
1.097337722999999
 20
299.308837891
 30
0.0
 40
2.0
100
AcDbArc
 50
0.000035972
 51
90.00001798600001
  0
LINE
  5
4F4
330
1E
100
AcDbEntity
  8
PLAIN_
  6
SOLID
 62
     4
100
AcDbLine
 10
-21.902662277
 20
305.8088378909999
 30
0.0
 11
-21.902662277
 21
313.308837891
 31
0.0
  0
ARC
  5
4F5
330
1E
100
AcDbEntity
  8
PLAIN_
  6
SOLID
 62
     4
100
AcDbCircle
 10
-72.427215296
 20
366.003277766
 30
0.0
 40
10.0
100
AcDbArc
 50
308.5741566559999
 51
341.9999891329999
  0
LINE
  5
4F6
330
1E
100
AcDbEntity
  8
PLAIN_
  6
SOLID
 62
     4
100
AcDbLine
 10
-63.159780502
 20
362.246337891
 30
0.0
 11
-62.184774371
 21
361.929534897
 31
0.0
  0
LINE
  5
4F7
330
1E
100
AcDbEntity
  8
PLAIN_
  6
SOLID
 62
     4
100
AcDbLine
 10
-58.037050247
 20
377.930969238
 30
0.0
 11
-62.916646966
 21
362.9131089799999
 31
0.0
  0
LINE
  5
4F8
330
1E
100
AcDbEntity
  8
PLAIN_
  6
L_DASH
 62
     7
100
AcDbLine
 10
-28.873965739
 20
307.798370264
 30
0.0
 11
-26.200486925
 21
318.5211086429999
 31
0.0
  0
LINE
  5
4F9
330
1E
100
AcDbEntity
  8
PLAIN_
  6
L_DASH
 62
     7
100
AcDbLine
 10
-26.200486921
 20
318.521108662
 30
0.0
 11
-25.35345541699999
 21
319.3982354809999
 31
0.0
  0
LINE
  5
4FA
330
1E
100
AcDbEntity
  8
PLAIN_
  6
L_DASH
 62
     7
100
AcDbLine
 10
-28.282402878
 20
307.650877077
 30
0.0
 11
-24.184560546
 21
324.08642578
 31
0.0
  0
LINE
  5
4FB
330
1E
100
AcDbEntity
  8
PLAIN_
  6
L_DASH
 62
     7
100
AcDbLine
 10
-22.797931129
 20
324.4840354139999
 30
0.0
 11
-24.184560538
 21
324.086425812
 31
0.0
  0
LINE
  5
4FC
330
1E
100
AcDbEntity
  8
PLAIN_
  6
L_DASH
 62
     7
100
AcDbLine
 10
-22.79791735699999
 20
324.484039333
 30
0.0
 11
-18.72439800599999
 21
340.822034685
 31
0.0
  0
LINE
  5
4FD
330
1E
100
AcDbEntity
  8
PLAIN_
  6
L_DASH
 62
     7
100
AcDbLine
 10
-18.72439799
 20
340.8220347459999
 30
0.0
 11
-17.059457932
 21
341.299448667
 31
0.0
  0
LINE
  5
4FE
330
1E
100
AcDbEntity
  8
PLAIN_
  6
L_DASH
 62
     7
100
AcDbLine
 10
-17.05945794099999
 20
341.299448617
 30
0.0
 11
-15.21270095
 21
348.706387076
 31
0.0
  0
LINE
  5
4FF
330
1E
100
AcDbEntity
  8
PLAIN_
  6
L_DASH
 62
     7
100
AcDbLine
 10
-15.212702704
 20
348.706380041
 30
0.0
 11
-13.54773455
 21
349.183802018
 31
0.0
  0
LINE
  5
500
330
1E
100
AcDbEntity
  8
PLAIN_
  6
SOLID
 62
     4
100
AcDbLine
 10
-49.824094772
 20
399.971797943
 30
0.0
 11
-62.18477487600001
 21
361.929533958
 31
0.0
  0
LINE
  5
501
330
1E
100
AcDbEntity
  8
PLAIN_
  6
SOLID
 62
     4
100
AcDbLine
 10
-50.799108505
 20
400.2885971069999
 30
0.0
 11
-49.82409475899999
 21
399.971797948
 31
0.0
  0
ARC
  5
502
330
1E
100
AcDbEntity
  8
PLAIN_
  6
SOLID
 62
     4
100
AcDbCircle
 10
-60.504921634
 20
402.696340209
 30
0.0
 40
10.0
100
AcDbArc
 50
346.067762935
 51
15.425965044
  0
ARC
  5
503
330
1E
100
AcDbEntity
  8
PLAIN_
  6
SOLID
 62
     4
100
AcDbCircle
 10
-25.812425613
 20
423.521223068
 30
0.0
 40
10.0
100
AcDbArc
 50
226.5243048149999
 51
285.8721736829999
  0
ARC
  5
504
330
1E
100
AcDbEntity
  8
PLAIN_
  6
SOLID
 62
     4
100
AcDbCircle
 10
50.09709739699999
 20
303.612548828
 30
0.0
 40
3.0
100
AcDbArc
 50
119.997334557
 51
180.008448944
  0
ARC
  5
505
330
1E
100
AcDbEntity
  8
PLAIN_
  6
SOLID
 62
     4
100
AcDbCircle
 10
47.097341537
 20
308.808837891
 30
0.0
 40
3.0
100
AcDbArc
 50
299.997312245
 51
359.999964028
  0
ARC
  5
506
330
1E
100
AcDbEntity
  8
PLAIN_
  6
SOLID
 62
     4
100
AcDbCircle
 10
-68.902662277
 20
303.612686157
 30
0.0
 40
3.0
100
AcDbArc
 50
359.999882066
 51
60.00002716899999
  0
ARC
  5
507
330
1E
100
AcDbEntity
  8
PLAIN_
  6
SOLID
 62
     4
100
AcDbCircle
 10
-65.902662277
 20
308.808837891
 30
0.0
 40
3.0
100
AcDbArc
 50
180.0
 51
239.999988009
  0
LINE
  5
508
330
1E
100
AcDbEntity
  8
PLAIN_
  6
SOLID
 62
     4
100
AcDbLine
 10
47.097341537
 20
303.6121063229999
 30
0.0
 11
47.097341537
 21
297.8088378909999
 31
0.0
  0
LINE
  5
509
330
1E
100
AcDbEntity
  8
PLAIN_
  6
SOLID
 62
     4
100
AcDbLine
 10
-65.902662277
 20
303.612686157
 30
0.0
 11
-65.902662277
 21
297.8088378909999
 31
0.0
  0
LINE
  5
50A
330
1E
100
AcDbEntity
  8
PLAIN_
  6
SOLID
 62
     4
100
AcDbLine
 10
48.053487778
 20
305.8088378909999
 30
0.0
 11
3.097337723
 21
305.8088378909999
 31
0.0
  0
ARC
  5
50B
330
1E
100
AcDbEntity
  8
PLAIN_
  6
SOLID
 62
     4
100
AcDbCircle
 10
7.007066727
 20
423.5212345119999
 30
0.0
 40
10.0
100
AcDbArc
 50
254.127482987
 51
313.4756455529999
  0
ARC
  5
50C
330
1E
100
AcDbEntity
  8
PLAIN_
  6
SOLID
 62
     4
100
AcDbCircle
 10
50.55597496
 20
368.0363464359999
 30
0.0
 40
10.0
100
AcDbArc
 50
182.127596029
 51
241.475656142
  0
ARC
  5
50D
330
1E
100
AcDbEntity
  8
PLAIN_
  6
SOLID
 62
     4
100
AcDbCircle
 10
40.414171219
 20
399.249572754
 30
0.0
 40
10.0
100
AcDbArc
 50
154.524371113
 51
213.8724312259999
  0
ARC
  5
50E
330
1E
100
AcDbEntity
  8
PLAIN_
  6
SOLID
 62
     4
100
AcDbCircle
 10
-9.402662277000001
 20
365.808837891
 30
0.0
 40
50.0
100
AcDbArc
 50
2.127608935
 51
18.000026
  0
ARC
  5
50F
330
1E
100
AcDbEntity
  8
PLAIN_
  6
SOLID
 62
     4
100
AcDbCircle
 10
-9.402662277000001
 20
365.808837891
 30
0.0
 40
50.0
100
AcDbArc
 50
74.12765192000001
 51
105.8724587289999
  0
LINE
  5
510
330
1E
100
AcDbEntity
  8
PLAIN_
  6
SOLID
 62
     4
100
AcDbLine
 10
-21.902662277
 20
305.8088378909999
 30
0.0
 11
-66.85891151399999
 21
305.8088378909999
 31
0.0
  0
LINE
  5
511
330
1E
100
AcDbEntity
  8
PLAIN_
  6
SOLID
 62
     4
100
AcDbLine
 10
-21.902662277
 20
297.8088378909999
 30
0.0
 11
-65.902662277
 21
297.8088378909999
 31
0.0
  0
ARC
  5
512
330
1E
100
AcDbEntity
  8
PLAIN_
  6
SOLID
 62
     4
100
AcDbCircle
 10
28.929300308
 20
355.456962585
 30
0.0
 40
2.0
100
AcDbArc
 50
251.9998312489999
 51
333.1501079099999
  0
ARC
  5
513
330
1E
100
AcDbEntity
  8
PLAIN_
  6
SOLID
 62
     4
100
AcDbCircle
 10
40.527803421
 20
349.5854492189999
 30
0.0
 40
13.0
100
AcDbArc
 50
165.965917251
 51
251.574360836
  0
ARC
  5
514
330
1E
100
AcDbEntity
  8
PLAIN_
  6
SOLID
 62
     4
100
AcDbCircle
 10
30.09736824
 20
318.2772064209999
 30
0.0
 40
20.0
100
AcDbArc
 50
359.999772783
 51
71.574390605
  0
ARC
  5
515
330
1E
100
AcDbEntity
  8
PLAIN_
  6
SOLID
 62
     4
100
AcDbCircle
 10
18.21364021299999
 20
355.1631011959999
 30
0.0
 40
10.0
100
AcDbArc
 50
345.965933359
 51
45.000064318
  0
ARC
  5
516
330
1E
100
AcDbEntity
  8
PLAIN_
  6
SOLID
 62
     4
100
AcDbCircle
 10
0.008378983
 20
388.969848633
 30
0.0
 40
3.0
100
AcDbArc
 50
247.886541067
 51
324.000051818
  0
ARC
  5
517
330
1E
100
AcDbEntity
  8
PLAIN_
  6
SOLID
 62
     4
100
AcDbCircle
 10
9.716585158999999
 20
381.916423798
 30
0.0
 40
3.0
100
AcDbArc
 50
143.9999785079999
 51
220.113455109
  0
ARC
  5
518
330
1E
100
AcDbEntity
  8
PLAIN_
  6
SOLID
 62
     4
100
AcDbCircle
 10
18.875204086
 20
394.522182465
 30
0.0
 40
3.0
100
AcDbArc
 50
79.37703843
 51
144.000012659
  0
ARC
  5
519
330
1E
100
AcDbEntity
  8
PLAIN_
  6
SOLID
 62
     4
100
AcDbCircle
 10
9.166982650999999
 20
401.5755882259999
 30
0.0
 40
3.0
100
AcDbArc
 50
324.000004007
 51
28.623114839
  0
ARC
  5
51A
330
1E
100
AcDbEntity
  8
PLAIN_
  6
SOLID
 62
     4
100
AcDbCircle
 10
-28.52191924999999
 20
381.916419983
 30
0.0
 40
3.0
100
AcDbArc
 50
319.886563561
 51
36.000087973
  0
ARC
  5
51B
330
1E
100
AcDbEntity
  8
PLAIN_
  6
SOLID
 62
     4
100
AcDbCircle
 10
-18.813714981
 20
388.969844818
 30
0.0
 40
3.0
100
AcDbArc
 50
216.000031738
 51
292.113433207
  0
ARC
  5
51C
330
1E
100
AcDbEntity
  8
PLAIN_
  6
SOLID
 62
     4
100
AcDbCircle
 10
-27.972310066
 20
401.575561523
 30
0.0
 40
3.0
100
AcDbArc
 50
151.376900415
 51
216.000024907
  0
ARC
  5
51D
330
1E
100
AcDbEntity
  8
PLAIN_
  6
SOLID
 62
     4
100
AcDbCircle
 10
-37.68052101099999
 20
394.5221748349999
 30
0.0
 40
3.0
100
AcDbArc
 50
35.99917637
 51
100.6231682969999
  0
LINE
  5
51E
330
1E
100
AcDbEntity
  8
PLAIN_
  6
SOLID
 62
     4
100
AcDbLine
 10
6.153688430999999
 20
381.365188599
 30
0.0
 11
25.284708568
 21
362.2341620109999
 31
0.0
  0
ARC
  5
51F
330
1E
100
AcDbEntity
  8
PLAIN_
  6
SOLID
 62
     4
100
AcDbCircle
 10
38.46051979099999
 20
336.75087738
 30
0.0
 40
2.0
100
AcDbArc
 50
80.84979113999999
 51
162.0001497629999
  0
LINE
  5
520
330
1E
100
AcDbEntity
  8
PLAIN_
  6
SOLID
 62
     4
100
AcDbLine
 10
7.28953743
 20
383.679775238
 30
0.0
 11
16.44815232
 21
396.2855376019999
 31
0.0
  0
LINE
  5
521
330
1E
100
AcDbEntity
  8
PLAIN_
  6
SOLID
 62
     4
100
AcDbLine
 10
2.435434341
 20
387.206489563
 30
0.0
 11
11.594033904
 21
399.8122295519999
 31
0.0
  0
LINE
  5
522
330
1E
100
AcDbEntity
  8
PLAIN_
  6
SOLID
 62
     4
100
AcDbLine
 10
-26.094869614
 20
383.6797790529999
 30
0.0
 11
-35.25348648699999
 21
396.2855182419999
 31
0.0
  0
LINE
  5
523
330
1E
100
AcDbEntity
  8
PLAIN_
  6
SOLID
 62
     4
100
AcDbLine
 10
-21.240764618
 20
387.206489563
 30
0.0
 11
-30.399360944
 21
399.8122026769999
 31
0.0
  0
ARC
  5
524
330
1E
100
AcDbEntity
  8
PLAIN_
  6
SOLID
 62
     4
100
AcDbCircle
 10
-47.734586716
 20
355.4569473269999
 30
0.0
 40
2.0
100
AcDbArc
 50
206.849514608
 51
288.000064477
  0
ARC
  5
525
330
1E
100
AcDbEntity
  8
PLAIN_
  6
SOLID
 62
     4
100
AcDbCircle
 10
-59.333124161
 20
349.585510254
 30
0.0
 40
13.0
100
AcDbArc
 50
288.425564772
 51
1.046512933
  0
LINE
  5
526
330
1E
100
AcDbEntity
  8
PLAIN_
  6
SOLID
 62
     7
100
AcDbLine
 10
-208.6180108599999
 20
387.965682983
 30
0.0
 11
-240.235114765
 21
387.965682983
 31
0.0
  0
ARC
  5
527
330
1E
100
AcDbEntity
  8
PLAIN_
  6
SOLID
 62
     4
100
AcDbCircle
 10
-57.265867233
 20
336.7509460449999
 30
0.0
 40
2.0
100
AcDbArc
 50
17.99985205799999
 51
99.150012606
  0
ARC
  5
528
330
1E
100
AcDbEntity
  8
PLAIN_
  6
SOLID
 62
     4
100
AcDbCircle
 10
-36.336961746
 20
350.0055847169999
 30
0.0
 40
10.0
100
AcDbArc
 50
142.999745115
 51
181.046507924
  0
ARC
  5
529
330
1E
100
AcDbEntity
  8
PLAIN_
  6
SOLID
 62
     4
100
AcDbCircle
 10
60.097341537
 20
341.963745117
 30
0.0
 40
10.0
100
AcDbArc
 50
158.7206617539999
 51
180.0
  0
ARC
  5
52A
330
1E
100
AcDbEntity
  8
PLAIN_
  6
SOLID
 62
     4
100
AcDbCircle
 10
-78.901777267
 20
341.9653167719999
 30
0.0
 40
10.0
100
AcDbArc
 50
359.998065235
 51
21.27639944299999
  0
LINE
  5
52B
330
1E
100
AcDbEntity
  8
PLAIN_
  6
SOLID
 62
     4
100
AcDbLine
 10
50.097341537
 20
341.963745117
 30
0.0
 11
50.097341537
 21
308.808837891
 31
0.0
  0
LINE
  5
52C
330
1E
100
AcDbEntity
  8
PLAIN_
  6
SOLID
 62
     4
100
AcDbLine
 10
-68.902662277
 20
341.9653167719999
 30
0.0
 11
-68.902662277
 21
308.808837891
 31
0.0
  0
LINE
  5
52D
330
1E
100
AcDbEntity
  8
PLAIN_
  6
SOLID
 62
     4
100
AcDbLine
 10
47.097341537
 20
297.8088378909999
 30
0.0
 11
3.097337723
 21
297.8088378909999
 31
0.0
  0
ARC
  5
52E
330
1E
100
AcDbEntity
  8
PLAIN_
  6
SOLID
 62
     4
100
AcDbCircle
 10
-48.90266227699999
 20
318.277038574
 30
0.0
 40
20.0
100
AcDbArc
 50
108.4255665929999
 51
180.0
  0
ARC
  5
52F
330
1E
100
AcDbEntity
  8
PLAIN_
  6
SOLID
 62
     4
100
AcDbCircle
 10
-18.397409439
 20
333.932723999
 30
0.0
 40
10.0
100
AcDbArc
 50
293.5635814049999
 51
322.9999789349999
  0
LINE
  5
530
330
1E
100
AcDbEntity
  8
PLAIN_
  6
SOLID
 62
     4
100
AcDbLine
 10
8.167318343999999
 20
352.5689086909999
 30
0.0
 11
-10.41105396999999
 21
327.914573368
 31
0.0
  0
LINE
  5
531
330
1E
100
AcDbEntity
  8
PLAIN_
  6
SOLID
 62
     4
100
AcDbLine
 10
-26.972642899
 20
379.04876709
 30
0.0
 11
-44.323246656
 21
356.023742119
 31
0.0
  0
CIRCLE
  5
532
330
1E
100
AcDbEntity
  8
PLAIN_
  6
SOLID
 62
     4
100
AcDbCircle
 10
-9.402662277000001
 20
365.808837891
 30
0.0
 40
22.0
  0
LINE
  5
533
330
1E
100
AcDbEntity
  8
PLAIN_
  6
SOLID
 62
     4
100
AcDbLine
 10
-21.902662277
 20
305.8088378909999
 30
0.0
 11
-21.902662277
 21
297.8088378909999
 31
0.0
  0
LINE
  5
534
330
1E
100
AcDbEntity
  8
PLAIN_
  6
SOLID
 62
     4
100
AcDbLine
 10
3.097337723
 20
313.308837891
 30
0.0
 11
3.097337723
 21
297.8088378909999
 31
0.0
  0
LINE
  5
535
330
1E
100
AcDbEntity
  8
PLAIN_
  6
SOLID
 62
     4
100
AcDbLine
 10
1.097337722999999
 20
301.308837891
 30
0.0
 11
-19.902662277
 21
301.308837891
 31
0.0
  0
LINE
  5
536
330
1E
100
AcDbEntity
  8
PLAIN_
  6
SOLID
 62
     7
100
AcDbLine
 10
-206.6177330019999
 20
382.7656822199999
 30
0.0
 11
-206.6177330019999
 21
386.810822024
 31
0.0
  0
LINE
  5
537
330
1E
100
AcDbEntity
  8
PLAIN_
  6
SOLID
 62
     7
100
AcDbLine
 10
-237.6180108599999
 20
348.9657897949999
 30
0.0
 11
-237.6180108599999
 21
381.9657897949999
 31
0.0
  0
ARC
  5
538
330
1E
100
AcDbEntity
  8
PLAIN_
  6
SOLID
 62
     4
100
AcDbCircle
 10
-59.333085067
 20
349.5855733909999
 30
0.0
 40
11.0
100
AcDbArc
 50
26.84954183199999
 51
279.150008866
  0
ARC
  5
539
330
1E
100
AcDbEntity
  8
PLAIN_
  6
SOLID
 62
     4
100
AcDbCircle
 10
-9.402662277000001
 20
365.808837891
 30
0.0
 40
65.0
100
AcDbArc
 50
336.260398473
 51
203.739616554
  0
CIRCLE
  5
53A
330
1E
100
AcDbEntity
  8
PLAIN_
  6
SOLID
 62
     4
100
AcDbCircle
 10
-40.261381703
 20
408.282257025
 30
0.0
 40
11.0
  0
CIRCLE
  5
53B
330
1E
100
AcDbEntity
  8
PLAIN_
  6
SOLID
 62
     4
100
AcDbCircle
 10
21.456062558
 20
408.2822544689999
 30
0.0
 40
11.0
  0
LINE
  5
53C
330
1E
100
AcDbEntity
  8
PLAIN_
  6
SOLID
 62
     7
100
AcDbLine
 10
-229.61801086
 20
347.4657897949999
 30
0.0
 11
-229.61801086
 21
383.4657897949999
 31
0.0
  0
ARC
  5
53D
330
1E
100
AcDbEntity
  8
PLAIN_
  6
SOLID
 62
     4
100
AcDbCircle
 10
40.527808719
 20
349.585449733
 30
0.0
 40
11.0
100
AcDbArc
 50
260.849902864
 51
153.150151332
  0
ARC
  5
53E
330
1E
100
AcDbEntity
  8
PLAIN_
  6
SOLID
 62
     4
100
AcDbCircle
 10
-9.402662277000001
 20
313.308837891
 30
0.0
 40
12.5
100
AcDbArc
 50
0.000005009
 51
180.0000373389999
  0
LINE
  5
53F
330
1E
100
AcDbEntity
  8
PLAIN_
  6
SOLID
 62
     2
100
AcDbLine
 10
-14.36078681999999
 20
263.6714202329999
 30
0.0
 11
-9.402702969999999
 21
266.5339918079999
 31
0.0
  0
LINE
  5
540
330
1E
100
AcDbEntity
  8
PLAIN_
  6
SOLID
 62
     2
100
AcDbLine
 10
-9.402687454
 20
266.533991949
 30
0.0
 11
-4.444588071
 21
263.671435428
 31
0.0
  0
LINE
  5
541
330
1E
100
AcDbEntity
  8
PLAIN_
  6
SOLID
 62
     2
100
AcDbLine
 10
-4.44457283
 20
263.6714202329999
 30
0.0
 11
-4.44457283
 21
257.946292059
 31
0.0
  0
CIRCLE
  5
542
330
1E
100
AcDbEntity
  8
PLAIN_
  6
SOLID
 62
     2
100
AcDbCircle
 10
90.45822581999999
 20
333.362073841
 30
0.0
 40
9.0
  0
LINE
  5
543
330
1E
100
AcDbEntity
  8
PLAIN_
  6
SOLID
 62
     2
100
AcDbLine
 10
95.416340444
 20
330.499517384
 30
0.0
 11
90.45824104499999
 21
327.636937908
 31
0.0
  0
LINE
  5
544
330
1E
100
AcDbEntity
  8
PLAIN_
  6
SOLID
 62
     2
100
AcDbLine
 10
90.45824107799999
 20
327.6369380379999
 30
0.0
 11
85.500126596
 21
330.4995096559999
 31
0.0
  0
LINE
  5
545
330
1E
100
AcDbEntity
  8
PLAIN_
  6
SOLID
 62
     2
100
AcDbLine
 10
85.500126454
 20
330.499509754
 30
0.0
 11
85.500111196
 21
336.224637928
 31
0.0
  0
ARC
  5
546
330
1E
100
AcDbEntity
  8
PLAIN_
  6
SOLID
 62
     7
100
AcDbCircle
 10
-208.6180108599999
 20
382.9657897949999
 30
0.0
 40
2.0
100
AcDbArc
 50
270.0
 51
0.0
  0
LINE
  5
547
330
1E
100
AcDbEntity
  8
PLAIN_
  6
SOLID
 62
     7
100
AcDbLine
 10
-208.6180108599999
 20
342.9656829829999
 30
0.0
 11
-238.707423977
 21
342.9656829829999
 31
0.0
  0
LINE
  5
548
330
1E
100
AcDbEntity
  8
PLAIN_
  6
SOLID
 62
     7
100
AcDbLine
 10
-206.6177330019999
 20
348.165897413
 30
0.0
 11
-206.6177330019999
 21
344.120543943
 31
0.0
  0
LINE
  5
549
330
1E
100
AcDbEntity
  8
PLAIN_
  6
SOLID
 62
     7
100
AcDbLine
 10
-206.6177330019999
 20
382.7656822199999
 30
0.0
 11
-206.6177330019999
 21
348.165897413
 31
0.0
  0
LINE
  5
54A
330
1E
100
AcDbEntity
  8
PLAIN_
  6
SOLID
 62
     7
100
AcDbLine
 10
-229.61801086
 20
382.9657897949999
 30
0.0
 11
-228.463310322
 21
380.9657897949999
 31
0.0
  0
LINE
  5
54B
330
1E
100
AcDbEntity
  8
PLAIN_
  6
SOLID
 62
     7
100
AcDbLine
 10
-236.11801086
 20
383.4657897949999
 30
0.0
 11
-229.61801086
 21
383.4657897949999
 31
0.0
  0
LINE
  5
54C
330
1E
100
AcDbEntity
  8
PLAIN_
  6
SOLID
 62
     7
100
AcDbLine
 10
-324.517730728
 20
267.5658183749999
 30
0.0
 11
-312.81773068
 21
267.5658183749999
 31
0.0
  0
LINE
  5
54D
330
1E
100
AcDbEntity
  8
PLAIN_
  6
SOLID
 62
     2
100
AcDbLine
 10
85.500126454
 20
336.224637928
 30
0.0
 11
90.45821030399999
 21
339.087209503
 31
0.0
  0
LINE
  5
54E
330
1E
100
AcDbEntity
  8
PLAIN_
  6
SOLID
 62
     2
100
AcDbLine
 10
90.45822581999999
 20
339.087209644
 30
0.0
 11
95.41632520299998
 21
336.224653124
 31
0.0
  0
LINE
  5
54F
330
1E
100
AcDbEntity
  8
PLAIN_
  6
SOLID
 62
     2
100
AcDbLine
 10
95.416340444
 20
336.224637928
 30
0.0
 11
95.416340444
 21
330.499509754
 31
0.0
  0
CIRCLE
  5
550
330
1E
100
AcDbEntity
  8
PLAIN_
  6
SOLID
 62
     2
100
AcDbCircle
 10
52.314733906
 20
450.755623164
 30
0.0
 40
9.0
  0
LINE
  5
551
330
1E
100
AcDbEntity
  8
PLAIN_
  6
SOLID
 62
     2
100
AcDbLine
 10
57.27284853
 20
447.8930667059999
 30
0.0
 11
52.31474913199999
 21
445.030487231
 31
0.0
  0
LINE
  5
552
330
1E
100
AcDbEntity
  8
PLAIN_
  6
SOLID
 62
     2
100
AcDbLine
 10
52.314749165
 20
445.030487361
 30
0.0
 11
47.356634682
 21
447.893058979
 31
0.0
  0
LINE
  5
553
330
1E
100
AcDbEntity
  8
PLAIN_
  6
SOLID
 62
     2
100
AcDbLine
 10
47.356634541
 20
447.893059077
 30
0.0
 11
47.35661928199999
 21
453.618187251
 31
0.0
  0
LINE
  5
554
330
1E
100
AcDbEntity
  8
PLAIN_
  6
SOLID
 62
     2
100
AcDbLine
 10
47.356634541
 20
453.618187251
 30
0.0
 11
52.31471839000001
 21
456.4807588259999
 31
0.0
  0
LINE
  5
555
330
1E
100
AcDbEntity
  8
PLAIN_
  6
SOLID
 62
     2
100
AcDbLine
 10
52.314733906
 20
456.4807589669999
 30
0.0
 11
57.27283329
 21
453.618202446
 31
0.0
  0
LINE
  5
556
330
1E
100
AcDbEntity
  8
PLAIN_
  6
SOLID
 62
     2
100
AcDbLine
 10
57.27284853
 20
453.618187251
 30
0.0
 11
57.27284853
 21
447.893059077
 31
0.0
  0
CIRCLE
  5
557
330
1E
100
AcDbEntity
  8
PLAIN_
  6
SOLID
 62
     2
100
AcDbCircle
 10
-84.93352040199999
 20
438.747776036
 30
0.0
 40
5.003927608999999
  0
LINE
  5
558
330
1E
100
AcDbEntity
  8
PLAIN_
  6
SOLID
 62
     2
100
AcDbLine
 10
-82.17684855100001
 20
437.15621767
 30
0.0
 11
-84.93351193699998
 21
435.5646465069999
 31
0.0
  0
LINE
  5
559
330
1E
100
AcDbEntity
  8
PLAIN_
  6
SOLID
 62
     2
100
AcDbLine
 10
-84.933511918
 20
435.564646579
 30
0.0
 11
-87.69018368999999
 21
437.156213374
 31
0.0
  0
LINE
  5
55A
330
1E
100
AcDbEntity
  8
PLAIN_
  6
SOLID
 62
     2
100
AcDbLine
 10
-87.690183769
 20
437.156213428
 30
0.0
 11
-87.69019225299999
 21
440.339338643
 31
0.0
  0
LINE
  5
55B
330
1E
100
AcDbEntity
  8
PLAIN_
  6
SOLID
 62
     2
100
AcDbLine
 10
-87.690183769
 20
440.339338643
 30
0.0
 11
-84.93352902799999
 21
441.930905414
 31
0.0
  0
LINE
  5
55C
330
1E
100
AcDbEntity
  8
PLAIN_
  6
SOLID
 62
     2
100
AcDbLine
 10
-84.93352040199999
 20
441.930905493
 30
0.0
 11
-82.176857025
 21
440.339347092
 31
0.0
  0
LINE
  5
55D
330
1E
100
AcDbEntity
  8
PLAIN_
  6
SOLID
 62
     2
100
AcDbLine
 10
-82.17684855100001
 20
440.339338643
 30
0.0
 11
-82.17684855100001
 21
437.156213428
 31
0.0
  0
LINE
  5
55E
330
1E
100
AcDbEntity
  8
PLAIN_
  6
SOLID
 62
     2
100
AcDbLine
 10
86.063358001
 20
314.92255269
 30
0.0
 11
83.30669461600001
 21
313.3309815259999
 31
0.0
  0
LINE
  5
55F
330
1E
100
AcDbEntity
  8
PLAIN_
  6
SOLID
 62
     2
100
AcDbLine
 10
86.063358001
 20
318.1056736629999
 30
0.0
 11
86.063358001
 21
314.922548448
 31
0.0
  0
LINE
  5
560
330
1E
100
AcDbEntity
  8
PLAIN_
  6
SOLID
 62
     2
100
AcDbLine
 10
83.30668615
 20
319.697240512
 30
0.0
 11
86.06334952700001
 21
318.1056821109999
 31
0.0
  0
LINE
  5
561
330
1E
100
AcDbEntity
  8
PLAIN_
  6
SOLID
 62
     2
100
AcDbLine
 10
80.55002278299999
 20
318.1056736629999
 30
0.0
 11
83.306677524
 21
319.6972404329999
 31
0.0
  0
LINE
  5
562
330
1E
100
AcDbEntity
  8
PLAIN_
  6
SOLID
 62
     2
100
AcDbLine
 10
80.55002278299999
 20
314.922548448
 30
0.0
 11
80.5500143
 21
318.1056736629999
 31
0.0
  0
LINE
  5
563
330
1E
100
AcDbEntity
  8
PLAIN_
  6
SOLID
 62
     2
100
AcDbLine
 10
83.30669463399999
 20
313.330981598
 30
0.0
 11
80.55002286199998
 21
314.922548393
 31
0.0
  0
CIRCLE
  5
564
330
1E
100
AcDbEntity
  8
PLAIN_
  6
SOLID
 62
     2
100
AcDbCircle
 10
83.30668615
 20
316.514111055
 30
0.0
 40
5.003927608999999
  0
LINE
  5
565
330
1E
100
AcDbEntity
  8
PLAIN_
  6
CENTER
 62
     2
100
AcDbLine
 10
-9.402654602
 20
365.808833479
 30
0.0
 11
67.336116457
 21
471.430690563
 31
0.0
  0
LINE
  5
566
330
1E
100
AcDbEntity
  8
PLAIN_
  6
CENTER
 62
     2
100
AcDbLine
 10
-9.402657277999999
 20
365.808841433
 30
0.0
 11
-91.19297154700001
 21
478.3835512619999
 31
0.0
  0
LINE
  5
567
330
1E
100
AcDbEntity
  8
PLAIN_
  6
CENTER
 62
     2
100
AcDbLine
 10
-9.402665669999999
 20
365.808841345
 30
0.0
 11
-141.742174108
 21
322.809128464
 31
0.0
  0
INSERT
  5
568
330
1E
100
AcDbEntity
  8
PLAIN_
100
AcDbBlockReference
  2
*U5
 10
0.0
 20
0.0
 30
0.0
  0
LINE
  5
569
330
1E
100
AcDbEntity
  8
PLAIN_
  6
CENTER
 62
     2
100
AcDbLine
 10
-9.402668179999999
 20
365.8088333369999
 30
0.0
 11
-9.402668179999999
 21
226.65883944
 31
0.0
  0
LWPOLYLINE
  5
56A
330
1E
100
AcDbEntity
  8
PLAIN_
  6
SOLID
 62
     7
100
AcDbPolyline
 90
       33
 70
     0
 43
0.0
 10
-311.555224657
 20
248.5357742309999
 10
-311.575400115
 20
248.828409722
 10
-311.635151158
 20
249.1097993949999
 10
-311.7321815859999
 20
249.369129601
 10
-311.8627625739999
 20
249.5964344259999
 10
-312.021875968
 20
249.782978672
 10
-312.203407129
 20
249.921593549
 10
-312.4003799159999
 20
250.0069521629999
 10
-312.605224774
 20
250.0357742309999
 10
-312.8100696309999
 20
250.006952137
 10
-313.0070424129999
 20
249.921593498
 10
-313.188573565
 20
249.782978599
 10
-313.3476869479999
 20
249.5964343329999
 10
-313.4782679219999
 20
249.369129492
 10
-313.575298335
 20
249.1097992729999
 10
-313.6350493599999
 20
248.828409593
 10
-313.6552248
 20
248.5357741
 10
-313.635049324
 20
248.243138611
 10
-313.575298264
 20
247.9617489459999
 10
-313.47826782
 20
247.702418752
 10
-313.347686818
 20
247.4751139429999
 10
-313.1885734129999
 20
247.288569717
 10
-313.007042243
 20
247.149954863
 10
-312.810069451
 20
247.064596274
 10
-312.6052245909999
 20
247.0357742309999
 10
-312.4003797359999
 20
247.0645963499999
 10
-312.203406959
 20
247.149955014
 10
-312.021875815
 20
247.2885699349999
 10
-311.862762444
 20
247.4751142209999
 10
-311.732181484
 20
247.702419079
 10
-311.6351510879999
 20
247.96174931
 10
-311.575400079
 20
248.243138997
 10
-311.555224657
 20
248.5357744929999
  0
LINE
  5
58D
330
1E
100
AcDbEntity
  8
PLAIN_
  6
CENTER
 62
     2
100
AcDbLine
 10
-9.402661338999999
 20
365.8088284749999
 30
0.0
 11
112.039043946
 21
326.350026484
 31
0.0
  0
INSERT
  5
58E
330
1E
100
AcDbEntity
  8
PLAIN_
100
AcDbBlockReference
  2
*D6
 10
0.0
 20
0.0
 30
0.0
  0
INSERT
  5
58F
330
1E
100
AcDbEntity
  8
PLAIN_
100
AcDbBlockReference
  2
*D7
 10
0.0
 20
0.0
 30
0.0
  0
INSERT
  5
590
330
1E
100
AcDbEntity
  8
PLAIN_
100
AcDbBlockReference
  2
*D8
 10
0.0
 20
0.0
 30
0.0
  0
INSERT
  5
591
330
1E
100
AcDbEntity
  8
PLAIN_
100
AcDbBlockReference
  2
*D9
 10
0.0
 20
0.0
 30
0.0
  0
INSERT
  5
592
330
1E
100
AcDbEntity
  8
PLAIN_
100
AcDbBlockReference
  2
*U10
 10
0.0
 20
0.0
 30
0.0
  0
INSERT
  5
593
330
1E
100
AcDbEntity
  8
PLAIN_
100
AcDbBlockReference
  2
*U11
 10
0.0
 20
0.0
 30
0.0
  0
INSERT
  5
594
330
1E
100
AcDbEntity
  8
PLAIN_
100
AcDbBlockReference
  2
*D12
 10
0.0
 20
0.0
 30
0.0
  0
INSERT
  5
595
330
1E
100
AcDbEntity
  8
PLAIN_
100
AcDbBlockReference
  2
*D13
 10
0.0
 20
0.0
 30
0.0
  0
INSERT
  5
596
330
1E
100
AcDbEntity
  8
PLAIN_
100
AcDbBlockReference
  2
*D14
 10
0.0
 20
0.0
 30
0.0
  0
LINE
  5
597
330
1E
100
AcDbEntity
  8
PLAIN_
  6
SOLID
 62
     7
100
AcDbLine
 10
-378.517730713
 20
303.9657897949999
 30
0.0
 11
-379.5177306959999
 21
302.965789812
 31
0.0
  0
LINE
  5
598
330
1E
100
AcDbEntity
  8
PLAIN_
  6
SOLID
 62
     7
100
AcDbLine
 10
-378.517730713
 20
426.965789795
 30
0.0
 11
-379.517730679
 21
427.9657897609999
 31
0.0
  0
INSERT
  5
599
330
1E
100
AcDbEntity
  8
PLAIN_
100
AcDbBlockReference
  2
*D15
 10
0.0
 20
0.0
 30
0.0
  0
INSERT
  5
59A
330
1E
100
AcDbEntity
  8
PLAIN_
100
AcDbBlockReference
  2
*D16
 10
0.0
 20
0.0
 30
0.0
  0
LINE
  5
59B
330
1E
100
AcDbEntity
  8
PLAIN_
  6
SOLID
 62
     7
100
AcDbLine
 10
-229.61801086
 20
382.9657897949999
 30
0.0
 11
-206.61801086
 21
382.9657897949999
 31
0.0
  0
LINE
  5
59C
330
1E
100
AcDbEntity
  8
PLAIN_
  6
SOLID
 62
     7
100
AcDbLine
 10
-228.463310322
 20
380.9657897949999
 30
0.0
 11
-208.6180108599999
 21
380.9657897949999
 31
0.0
  0
INSERT
  5
59D
330
1E
100
AcDbEntity
  8
PLAIN_
100
AcDbBlockReference
  2
*D17
 10
0.0
 20
0.0
 30
0.0
  0
ARC
  5
59E
330
1E
100
AcDbEntity
  8
PLAIN_
  6
SOLID
 62
     7
100
AcDbCircle
 10
-236.11801086
 20
381.9657897949999
 30
0.0
 40
1.5
100
AcDbArc
 50
90.0
 51
180.0
  0
INSERT
  5
59F
330
1E
100
AcDbEntity
  8
PLAIN_
100
AcDbBlockReference
  2
*D18
 10
0.0
 20
0.0
 30
0.0
  0
INSERT
  5
5A0
330
1E
100
AcDbEntity
  8
PLAIN_
100
AcDbBlockReference
  2
*D19
 10
0.0
 20
0.0
 30
0.0
  0
INSERT
  5
5A1
330
1E
100
AcDbEntity
  8
PLAIN_
100
AcDbBlockReference
  2
*D20
 10
0.0
 20
0.0
 30
0.0
  0
INSERT
  5
5A2
330
1E
100
AcDbEntity
  8
PLAIN_
100
AcDbBlockReference
  2
*D21
 10
0.0
 20
0.0
 30
0.0
  0
INSERT
  5
5A3
330
1E
100
AcDbEntity
  8
PLAIN_
100
AcDbBlockReference
  2
*D22
 10
0.0
 20
0.0
 30
0.0
  0
INSERT
  5
5A4
330
1E
100
AcDbEntity
  8
PLAIN_
100
AcDbBlockReference
  2
*D23
 10
0.0
 20
0.0
 30
0.0
  0
INSERT
  5
5A5
330
1E
100
AcDbEntity
  8
PLAIN_
100
AcDbBlockReference
  2
*D24
 10
0.0
 20
0.0
 30
0.0
  0
INSERT
  5
5A6
330
1E
100
AcDbEntity
  8
PLAIN_
100
AcDbBlockReference
  2
*D25
 10
0.0
 20
0.0
 30
0.0
  0
INSERT
  5
5A7
330
1E
100
AcDbEntity
  8
PLAIN_
100
AcDbBlockReference
  2
*D26
 10
0.0
 20
0.0
 30
0.0
  0
TEXT
  5
5A8
330
1E
100
AcDbEntity
  8
PLAIN_
  6
SOLID
 62
     7
100
AcDbText
 10
-297.4760437009999
 20
368.7767944339999
 30
0.0
 40
12.0
  1
BD1
 41
0.6833507220000001
100
AcDbText
  0
INSERT
  5
5A9
330
1E
100
AcDbEntity
  8
PLAIN_
100
AcDbBlockReference
  2
*D27
 10
0.0
 20
0.0
 30
0.0
  0
INSERT
  5
5AA
330
1E
100
AcDbEntity
  8
PLAIN_
100
AcDbBlockReference
  2
*U28
 10
0.0
 20
0.0
 30
0.0
  0
INSERT
  5
5AB
330
1E
100
AcDbEntity
  8
PLAIN_
100
AcDbBlockReference
  2
*D29
 10
0.0
 20
0.0
 30
0.0
  0
INSERT
  5
5AC
330
1E
100
AcDbEntity
  8
PLAIN_
100
AcDbBlockReference
  2
*D30
 10
0.0
 20
0.0
 30
0.0
  0
INSERT
  5
5AD
330
1E
100
AcDbEntity
  8
PLAIN_
100
AcDbBlockReference
  2
*U31
 10
0.0
 20
0.0
 30
0.0
  0
INSERT
  5
5AE
330
1E
100
AcDbEntity
  8
PLAIN_
100
AcDbBlockReference
  2
*D32
 10
0.0
 20
0.0
 30
0.0
  0
INSERT
  5
5AF
330
1E
100
AcDbEntity
  8
PLAIN_
100
AcDbBlockReference
  2
*U33
 10
0.0
 20
0.0
 30
0.0
  0
INSERT
  5
5B0
330
1E
100
AcDbEntity
  8
PLAIN_
100
AcDbBlockReference
  2
*D34
 10
0.0
 20
0.0
 30
0.0
  0
INSERT
  5
5B1
330
1E
100
AcDbEntity
  8
PLAIN_
100
AcDbBlockReference
  2
*D35
 10
0.0
 20
0.0
 30
0.0
  0
INSERT
  5
5B2
330
1E
100
AcDbEntity
  8
PLAIN_
100
AcDbBlockReference
  2
*U36
 10
0.0
 20
0.0
 30
0.0
  0
INSERT
  5
5B3
330
1E
100
AcDbEntity
  8
PLAIN_
100
AcDbBlockReference
  2
*U37
 10
0.0
 20
0.0
 30
0.0
  0
LINE
  5
5B4
330
1E
100
AcDbEntity
  8
PLAIN_
  6
L_DASH
 62
     7
100
AcDbLine
 10
49.941751705
 20
284.1282728479999
 30
0.0
 11
95.58086686100001
 21
317.287028894
 31
0.0
  0
LWPOLYLINE
  5
5B5
330
1E
100
AcDbEntity
  8
PLAIN_
  6
SOLID
 62
     7
100
AcDbPolyline
 90
       60
 70
     0
 43
0.0
 10
-346.6264694289999
 20
275.7358627849999
 10
-344.667157868
 20
275.7500354009999
 10
-342.708914552
 20
275.7434878859999
 10
-340.752807727
 20
275.69550011
 10
-338.7999056379999
 20
275.585351943
 10
-334.850222245
 20
275.2210059409999
 10
-333.532026163
 20
275.133819416
 10
-332.5156328709999
 20
275.1016351619999
 10
-331.498178282
 20
275.100162509
 10
-330.480256632
 20
275.1267064879999
 10
-329.462462155
 20
275.17857213
 10
-327.429631664
 20
275.347488525
 10
-325.4044406879999
 20
275.585351943
 10
-323.670619615
 20
275.828827033
 10
-318.48094195
 20
276.6389278379999
 10
-316.6804314209999
 20
276.8974196899999
 10
-314.874188967
 20
277.105331857
 10
-313.96984899
 20
277.1802857209999
 10
-313.065192899
 20
277.230552857
 10
-312.160592982
 20
277.25211933
 10
-311.2564215279999
 20
277.2409712059999
 10
-309.9725623869999
 20
277.1652943159999
 10
-308.691157268
 20
277.029997059
 10
-307.413042121
 20
276.8496760329999
 10
-304.3343532669999
 20
276.3199706079999
 10
-302.526792684
 20
276.036884469
 10
-301.216736755
 20
275.8885648959999
 10
-299.900646098
 20
275.7910049519999
 10
-298.5806588649999
 20
275.7411293459999
 10
-297.2589132099999
 20
275.7358627849999
 10
-292.4425662609999
 20
275.886373627
 10
-291.058662662
 20
275.8821533829999
 10
-289.673609294
 20
275.8459792559999
 10
-286.0606051339999
 20
275.7016947119999
 10
-285.2539450279999
 20
275.63756683
 10
-284.857164377
 20
275.5837131659999
 10
-284.466963037
 20
275.509703794
 10
-284.0850007899999
 20
275.4113167979999
 10
-283.7129374179999
 20
275.284330258
 10
-283.138001508
 20
275.0194866929999
 10
-282.022777833
 20
274.3813257599999
 10
-281.4552747859999
 20
274.0802435209999
 10
-279.64914468
 20
273.3276893109999
 10
-277.6925037329999
 20
272.2741134159999
 10
-277.272217504
 20
272.108480402
 10
-276.8412123819999
 20
271.9746142219999
 10
-276.400384058
 20
271.866854849
 10
-275.9506282209999
 20
271.779542259
 10
-274.0802435209999
 20
271.521559205
 10
-273.040425168
 20
271.354240926
 10
-272.528986922
 20
271.2422463519999
 10
-272.031894878
 20
271.10362957
 10
-271.555673224
 20
270.932591644
 10
-271.106846146
 20
270.723333636
 10
-270.691937832
 20
270.4700566099999
 10
-270.317472468
 20
270.1669616259999
 10
-269.9867295949999
 20
269.810267259
 10
-269.694528634
 20
269.40943342
 10
-269.432223538
 20
268.97619902
 10
-269.191168257
 20
268.5223029749999
  0
LINE
  5
5F3
330
1E
100
AcDbEntity
  8
PLAIN_
  6
SOLID
 62
     7
100
AcDbLine
 10
-324.517734542
 20
253.365821427
 30
0.0
 11
-312.81773068
 21
253.365821427
 31
0.0
  0
INSERT
  5
5F4
330
1E
100
AcDbEntity
  8
PLAIN_
100
AcDbBlockReference
  2
*U38
 10
0.0
 20
0.0
 30
0.0
  0
LINE
  5
5F5
330
1E
100
AcDbEntity
  8
PLAIN_
  6
L_DASH
 62
     6
100
AcDbLine
 10
-451.51776123
 20
307.24079895
 30
0.0
 11
-458.5177612299999
 21
307.24079895
 31
0.0
  0
LINE
  5
5F6
330
1E
100
AcDbEntity
  8
PLAIN_
  6
SOLID
 62
     6
100
AcDbLine
 10
-447.231994629
 20
398.535041809
 30
0.0
 11
-447.231994629
 21
416.939201355
 31
0.0
  0
LINE
  5
5F7
330
1E
100
AcDbEntity
  8
PLAIN_
  6
SOLID
 62
     6
100
AcDbLine
 10
-448.5996093749999
 20
303.9657897949999
 30
0.0
 11
-457.51776123
 21
303.9657897949999
 31
0.0
  0
LINE
  5
5F8
330
1E
100
AcDbEntity
  8
PLAIN_
  6
SOLID
 62
     6
100
AcDbLine
 10
-451.51776123
 20
321.9657897949999
 30
0.0
 11
-457.51776123
 21
321.9657897949999
 31
0.0
  0
INSERT
  5
5F9
330
1E
100
AcDbEntity
  8
PLAIN_
100
AcDbBlockReference
  2
*U39
 10
0.0
 20
0.0
 30
0.0
  0
LWPOLYLINE
  5
5FA
330
1E
100
AcDbEntity
  8
PLAIN_
  6
SOLID
 62
     7
100
AcDbPolyline
 90
       33
 70
     0
 43
0.0
 10
-311.5336303109999
 20
252.2448120119999
 10
-311.5456395119999
 20
252.488674914
 10
-311.581205608
 20
252.723166302
 10
-311.638961814
 20
252.9392748029999
 10
-311.7166885909999
 20
253.128695488
 10
-311.8113989419999
 20
253.284149027
 10
-311.9194532029999
 20
253.399661427
 10
-312.036698908
 20
253.4707936119999
 10
-312.1586303709999
 20
253.494812012
 10
-312.280561834
 20
253.4707936119999
 10
-312.397807539
 20
253.399661427
 10
-312.5058618
 20
253.284149027
 10
-312.6005721509999
 20
253.128695488
 10
-312.678298928
 20
252.9392748029999
 10
-312.736055134
 20
252.723166302
 10
-312.77162123
 20
252.488674914
 10
-312.783630431
 20
252.2448120119999
 10
-312.77162123
 20
252.000949109
 10
-312.736055134
 20
251.766457721
 10
-312.678298928
 20
251.55034922
 10
-312.6005721509999
 20
251.3609285349999
 10
-312.5058618
 20
251.2054749959999
 10
-312.397807539
 20
251.089962596
 10
-312.280561834
 20
251.0188304109999
 10
-312.1586303709999
 20
250.994812012
 10
-312.036698908
 20
251.0188304109999
 10
-311.9194532029999
 20
251.089962596
 10
-311.8113989419999
 20
251.2054749959999
 10
-311.7166885909999
 20
251.3609285349999
 10
-311.638961814
 20
251.55034922
 10
-311.581205608
 20
251.766457721
 10
-311.5456395119999
 20
252.000949109
 10
-311.5336303109999
 20
252.2448120119999
  0
INSERT
  5
61D
330
1E
100
AcDbEntity
  8
PLAIN_
100
AcDbBlockReference
  2
*U40
 10
0.0
 20
0.0
 30
0.0
  0
LWPOLYLINE
  5
61E
330
1E
100
AcDbEntity
  8
PLAIN_
  6
SOLID
 62
     7
100
AcDbPolyline
 90
       33
 70
     0
 43
0.0
 10
-311.500091493
 20
268.745025635
 10
-311.512100694
 20
268.9888885369999
 10
-311.5476667899999
 20
269.223379925
 10
-311.605422995
 20
269.4394884259999
 10
-311.683149772
 20
269.6289091109999
 10
-311.777860124
 20
269.78436265
 10
-311.8859143849999
 20
269.8998750499999
 10
-312.0031600899999
 20
269.971007235
 10
-312.125091553
 20
269.9950256349999
 10
-312.2470230159999
 20
269.971007235
 10
-312.3642687209999
 20
269.8998750499999
 10
-312.4723229809999
 20
269.78436265
 10
-312.5670333329999
 20
269.6289091109999
 10
-312.64476011
 20
269.4394884259999
 10
-312.7025163159999
 20
269.223379925
 10
-312.7380824109999
 20
268.9888885369999
 10
-312.750091612
 20
268.745025635
 10
-312.7380824109999
 20
268.501162732
 10
-312.7025163159999
 20
268.266671344
 10
-312.64476011
 20
268.0505628429999
 10
-312.5670333329999
 20
267.861142158
 10
-312.4723229809999
 20
267.7056886189999
 10
-312.3642687209999
 20
267.590176219
 10
-312.2470230159999
 20
267.5190440339999
 10
-312.125091553
 20
267.4950256349999
 10
-312.0031600899999
 20
267.5190440339999
 10
-311.8859143849999
 20
267.590176219
 10
-311.777860124
 20
267.7056886189999
 10
-311.683149772
 20
267.861142158
 10
-311.605422995
 20
268.0505628429999
 10
-311.5476667899999
 20
268.266671344
 10
-311.512100694
 20
268.501162732
 10
-311.500091493
 20
268.745025635
  0
ARC
  5
641
330
1E
100
AcDbEntity
  8
PLAIN_
  6
SOLID
 62
     4
100
AcDbCircle
 10
-441.5177612299999
 20
369.4657897949999
 30
0.0
 40
18.0
100
AcDbArc
 50
106.95775894
 51
180.0
  0
LINE
  5
642
330
1E
100
AcDbEntity
  8
PLAIN_
  6
L_DASH
 62
     6
100
AcDbLine
 10
-451.51776123
 20
307.24079895
 30
0.0
 11
-451.51776123
 21
318.69078064
 31
0.0
  0
LINE
  5
643
330
1E
100
AcDbEntity
  8
PLAIN_
  6
L_DASH
 62
     6
100
AcDbLine
 10
-451.51776123
 20
310.103286743
 30
0.0
 11
-458.5177612299999
 21
310.103286743
 31
0.0
  0
ARC
  5
644
330
1E
100
AcDbEntity
  8
PLAIN_
  6
SOLID
 62
     4
100
AcDbCircle
 10
-462.517700195
 20
344.2696228029999
 30
0.0
 40
3.0
100
AcDbArc
 50
359.99930833
 51
60.00028671599999
  0
LINE
  5
645
330
1E
100
AcDbEntity
  8
PLAIN_
  6
SOLID
 62
     6
100
AcDbLine
 10
-457.51776123
 20
303.9657897949999
 30
0.0
 11
-457.51776123
 21
321.9657897949999
 31
0.0
  0
LINE
  5
646
330
1E
100
AcDbEntity
  8
PLAIN_
  6
SOLID
 62
     4
100
AcDbLine
 10
-459.51776123
 20
369.4657897949999
 30
0.0
 11
-459.51776123
 21
343.9657897949999
 31
0.0
  0
ARC
  5
647
330
1E
100
AcDbEntity
  8
PLAIN_
  6
SOLID
 62
     4
100
AcDbCircle
 10
-459.51776123
 20
349.4657897949999
 30
0.0
 40
3.0
100
AcDbArc
 50
180.0
 51
240.000254387
  0
ARC
  5
648
330
1E
100
AcDbEntity
  8
PLAIN_
  6
SOLID
 62
     6
100
AcDbCircle
 10
-457.51776123
 20
304.9657897949999
 30
0.0
 40
1.0
100
AcDbArc
 50
180.0
 51
269.9999820139999
  0
ARC
  5
649
330
1E
100
AcDbEntity
  8
PLAIN_
  6
SOLID
 62
     4
100
AcDbCircle
 10
-441.5177612299999
 20
343.9657897949999
 30
0.0
 40
18.0
100
AcDbArc
 50
180.0
 51
224.415518059
  0
LINE
  5
64A
330
1E
100
AcDbEntity
  8
PLAIN_
  6
SOLID
 62
     4
100
AcDbLine
 10
-404.517730713
 20
297.4657897949999
 30
0.0
 11
-448.51776123
 21
297.4657897949999
 31
0.0
  0
LINE
  5
64B
330
1E
100
AcDbEntity
  8
PLAIN_
  6
SOLID
 62
     4
100
AcDbLine
 10
-451.51776123
 20
308.4657745359999
 30
0.0
 11
-451.51776123
 21
324.369750977
 31
0.0
  0
LINE
  5
64C
330
1E
100
AcDbEntity
  8
PLAIN_
  6
CENTER
 62
     2
100
AcDbLine
 10
-426.517730713
 20
297.4657897949999
 30
0.0
 11
-426.517730713
 21
331.4590454099999
 31
0.0
  0
LINE
  5
64D
330
1E
100
AcDbEntity
  8
PLAIN_
  6
SOLID
 62
     4
100
AcDbLine
 10
-448.51776123
 20
297.4657897949999
 30
0.0
 11
-448.51776123
 21
303.269622803
 31
0.0
  0
ARC
  5
64E
330
1E
100
AcDbEntity
  8
PLAIN_
  6
SOLID
 62
     4
100
AcDbCircle
 10
-461.51776123
 20
324.369750977
 30
0.0
 40
10.0
100
AcDbArc
 50
359.999991349
 51
44.415468427
  0
LINE
  5
64F
330
1E
100
AcDbEntity
  8
PLAIN_
  6
L_DASH
 62
     6
100
AcDbLine
 10
-452.231994629
 20
354.967391968
 30
0.0
 11
-448.926696763
 21
349.2424013169999
 31
0.0
  0
ARC
  5
650
330
1E
100
AcDbEntity
  8
PLAIN_
  6
SOLID
 62
     6
100
AcDbCircle
 10
-458.231994629
 20
415.939201355
 30
0.0
 40
1.0
100
AcDbArc
 50
90.00001798600001
 51
180.0
  0
LINE
  5
651
330
1E
100
AcDbEntity
  8
PLAIN_
  6
SOLID
 62
     6
100
AcDbLine
 10
-459.231994629
 20
399.939193726
 30
0.0
 11
-459.231994629
 21
415.939201355
 31
0.0
  0
LINE
  5
652
330
1E
100
AcDbEntity
  8
PLAIN_
  6
SOLID
 62
     6
100
AcDbLine
 10
-447.231994629
 20
398.9391937259999
 30
0.0
 11
-458.231994629
 21
398.9391937259999
 31
0.0
  0
ARC
  5
653
330
1E
100
AcDbEntity
  8
PLAIN_
  6
SOLID
 62
     6
100
AcDbCircle
 10
-458.231994629
 20
399.939193726
 30
0.0
 40
1.0
100
AcDbArc
 50
180.0
 51
269.9999820139999
  0
ARC
  5
654
330
1E
100
AcDbEntity
  8
PLAIN_
  6
SOLID
 62
     4
100
AcDbCircle
 10
-446.231994629
 20
398.535041809
 30
0.0
 40
1.0
100
AcDbArc
 50
180.0
 51
267.999269342
  0
LINE
  5
655
330
1E
100
AcDbEntity
  8
PLAIN_
  6
SOLID
 62
     6
100
AcDbLine
 10
-447.231994629
 20
416.939201355
 30
0.0
 11
-458.231994629
 21
416.939201355
 31
0.0
  0
ARC
  5
656
330
1E
100
AcDbEntity
  8
PLAIN_
  6
SOLID
 62
     4
100
AcDbCircle
 10
-448.51776123
 20
308.4657745359999
 30
0.0
 40
3.0
100
AcDbArc
 50
180.0
 51
240.0000016699999
  0
ARC
  5
657
330
1E
100
AcDbEntity
  8
PLAIN_
  6
SOLID
 62
     4
100
AcDbCircle
 10
-446.231994629
 20
339.8382568359999
 30
0.0
 40
1.0
100
AcDbArc
 50
180.0
 51
267.999269342
  0
LINE
  5
658
330
1E
100
AcDbEntity
  8
PLAIN_
  6
L_DASH
 62
     6
100
AcDbLine
 10
-451.51776123
 20
315.828292847
 30
0.0
 11
-458.5177612299999
 21
315.828292847
 31
0.0
  0
LINE
  5
659
330
1E
100
AcDbEntity
  8
PLAIN_
  6
SOLID
 62
     6
100
AcDbLine
 10
-458.5177612299999
 20
304.9657897949999
 30
0.0
 11
-458.5177612299999
 21
320.9657897949999
 31
0.0
  0
ARC
  5
65A
330
1E
100
AcDbEntity
  8
PLAIN_
  6
SOLID
 62
     4
100
AcDbCircle
 10
-446.231994629
 20
358.6465454099999
 30
0.0
 40
1.0
100
AcDbArc
 50
92.00073065799999
 51
180.0
  0
ARC
  5
65B
330
1E
100
AcDbEntity
  8
PLAIN_
  6
SOLID
 62
     6
100
AcDbCircle
 10
-457.51776123
 20
320.9657897949999
 30
0.0
 40
1.0
100
AcDbArc
 50
90.00001798600001
 51
180.0
  0
LINE
  5
65C
330
1E
100
AcDbEntity
  8
PLAIN_
  6
L_DASH
 62
     6
100
AcDbLine
 10
-452.231994629
 20
402.214202881
 30
0.0
 11
-448.926696763
 21
407.939193532
 31
0.0
  0
LINE
  5
65D
330
1E
100
AcDbEntity
  8
PLAIN_
  6
SOLID
 62
     6
100
AcDbLine
 10
-458.231994629
 20
398.9391937259999
 30
0.0
 11
-458.231994629
 21
416.939201355
 31
0.0
  0
LINE
  5
65E
330
1E
100
AcDbEntity
  8
PLAIN_
  6
L_DASH
 62
     6
100
AcDbLine
 10
-451.51776123
 20
318.69078064
 30
0.0
 11
-458.5177612299999
 21
318.69078064
 31
0.0
  0
LINE
  5
65F
330
1E
100
AcDbEntity
  8
PLAIN_
  6
L_DASH
 62
     6
100
AcDbLine
 10
-452.231994629
 20
405.0766906739999
 30
0.0
 11
-459.231994629
 21
405.0766906739999
 31
0.0
  0
LINE
  5
660
330
1E
100
AcDbEntity
  8
PLAIN_
  6
L_DASH
 62
     6
100
AcDbLine
 10
-452.231994629
 20
402.214202881
 30
0.0
 11
-459.231994629
 21
402.214202881
 31
0.0
  0
LINE
  5
661
330
1E
100
AcDbEntity
  8
PLAIN_
  6
L_DASH
 62
     7
100
AcDbLine
 10
4.302610346999999
 20
250.9694975729999
 30
0.0
 11
49.94175146999999
 21
284.128272913
 31
0.0
  0
ARC
  5
662
330
1E
100
AcDbEntity
  8
PLAIN_
  6
L_DASH
 62
     7
100
AcDbCircle
 10
-0.6249160950000001
 20
259.671191629
 30
0.0
 40
10.0
100
AcDbArc
 50
274.7281399159999
 51
299.5217435239999
  0
LINE
  5
663
330
1E
100
AcDbEntity
  8
PLAIN_
  6
L_DASH
 62
     6
100
AcDbLine
 10
-452.231994629
 20
402.214202881
 30
0.0
 11
-452.231994629
 21
413.6641921999999
 31
0.0
  0
LINE
  5
664
330
1E
100
AcDbEntity
  8
PLAIN_
  6
L_DASH
 62
     6
100
AcDbLine
 10
-452.231994629
 20
413.6641921999999
 30
0.0
 11
-459.231994629
 21
413.6641921999999
 31
0.0
  0
LINE
  5
665
330
1E
100
AcDbEntity
  8
PLAIN_
  6
L_DASH
 62
     6
100
AcDbLine
 10
-452.231994629
 20
410.801689148
 30
0.0
 11
-459.231994629
 21
410.801689148
 31
0.0
  0
LINE
  5
666
330
1E
100
AcDbEntity
  8
PLAIN_
  6
L_DASH
 62
     6
100
AcDbLine
 10
-452.231994629
 20
413.6641921999999
 30
0.0
 11
-448.9266968149999
 21
407.9391938159999
 31
0.0
  0
LINE
  5
667
330
1E
100
AcDbEntity
  8
PLAIN_
  6
SOLID
 62
     6
100
AcDbLine
 10
-447.231994629
 20
358.242401123
 30
0.0
 11
-458.231994629
 21
358.242401123
 31
0.0
  0
LINE
  5
668
330
1E
100
AcDbEntity
  8
PLAIN_
  6
L_DASH
 62
     6
100
AcDbLine
 10
-452.231994629
 20
343.517410278
 30
0.0
 11
-448.926696763
 21
349.242400929
 31
0.0
  0
LINE
  5
669
330
1E
100
AcDbEntity
  8
PLAIN_
  6
SOLID
 62
     6
100
AcDbLine
 10
-447.231994629
 20
340.2424011229999
 30
0.0
 11
-447.231994629
 21
358.242401123
 31
0.0
  0
LINE
  5
66A
330
1E
100
AcDbEntity
  8
PLAIN_
  6
SOLID
 62
     4
100
AcDbLine
 10
-447.231994629
 20
339.8382568359999
 30
0.0
 11
-447.231994629
 21
358.6465454099999
 31
0.0
  0
ARC
  5
66B
330
1E
100
AcDbEntity
  8
PLAIN_
  6
L_DASH
 62
     7
100
AcDbCircle
 10
-9.402660184
 20
365.808832525
 30
0.0
 40
116.5
100
AcDbArc
 50
273.4447800429999
 51
274.7277164409999
  0
ARC
  5
66C
330
1E
100
AcDbEntity
  8
PLAIN_
  6
SOLID
 62
     4
100
AcDbCircle
 10
-452.3344116209999
 20
387.4657897949999
 30
0.0
 40
3.0
100
AcDbArc
 50
269.9999820139999
 51
301.002692185
  0
ARC
  5
66D
330
1E
100
AcDbEntity
  8
PLAIN_
  6
SOLID
 62
     4
100
AcDbCircle
 10
-459.51776123
 20
381.4657897949999
 30
0.0
 40
3.0
100
AcDbArc
 50
90.00001798600001
 51
180.0
  0
ARC
  5
66E
330
1E
100
AcDbEntity
  8
PLAIN_
  6
SOLID
 62
     4
100
AcDbCircle
 10
-448.51776123
 20
392.422271729
 30
0.0
 40
6.0
100
AcDbArc
 50
286.957736629
 51
359.999991349
  0
LINE
  5
66F
330
1E
100
AcDbEntity
  8
PLAIN_
  6
SOLID
 62
     4
100
AcDbLine
 10
-442.51776123
 20
392.422271729
 30
0.0
 11
-442.51776123
 21
397.40473175
 31
0.0
  0
ARC
  5
670
330
1E
100
AcDbEntity
  8
PLAIN_
  6
SOLID
 62
     4
100
AcDbCircle
 10
-446.231994629
 20
417.3433456419999
 30
0.0
 40
1.0
100
AcDbArc
 50
92.00073065799999
 51
180.0
  0
LINE
  5
671
330
1E
100
AcDbEntity
  8
PLAIN_
  6
SOLID
 62
     4
100
AcDbLine
 10
-452.3344116209999
 20
384.4657897949999
 30
0.0
 11
-459.51776123
 21
384.4657897949999
 31
0.0
  0
LINE
  5
672
330
1E
100
AcDbEntity
  8
PLAIN_
  6
SOLID
 62
     4
100
AcDbLine
 10
-462.5177612299999
 20
349.4657897949999
 30
0.0
 11
-462.5177612299999
 21
381.4657897949999
 31
0.0
  0
LINE
  5
673
330
1E
100
AcDbEntity
  8
PLAIN_
  6
L_DASH
 62
     7
100
AcDbLine
 10
-2.403165889999999
 20
249.519315817
 30
0.0
 11
-2.403147675
 21
261.308825173
 31
0.0
  0
ARC
  5
674
330
1E
100
AcDbEntity
  8
PLAIN_
  6
SOLID
 62
     7
100
AcDbCircle
 10
-446.231994629
 20
339.8382568359999
 30
0.0
 40
1.0
100
AcDbArc
 50
180.0
 51
267.999269342
  0
LINE
  5
675
330
1E
100
AcDbEntity
  8
PLAIN_
  6
SOLID
 62
     4
100
AcDbLine
 10
-385.517730713
 20
430.165794373
 30
0.0
 11
-385.8076171989999
 21
430.455680859
 31
0.0
  0
LINE
  5
676
330
1E
100
AcDbEntity
  8
PLAIN_
  6
SOLID
 62
     4
100
AcDbLine
 10
-447.231994629
 20
398.4225006099999
 30
0.0
 11
-447.231994629
 21
417.3433456419999
 31
0.0
  0
LINE
  5
677
330
1E
100
AcDbEntity
  8
PLAIN_
  6
SOLID
 62
     4
100
AcDbLine
 10
-385.517730713
 20
300.9657897949999
 30
0.0
 11
-385.517730713
 21
430.465789795
 31
0.0
  0
LINE
  5
678
330
1E
100
AcDbEntity
  8
PLAIN_
  6
SOLID
 62
     6
100
AcDbLine
 10
-447.231994629
 20
340.2424011229999
 30
0.0
 11
-458.231994629
 21
340.2424011229999
 31
0.0
  0
LINE
  5
679
330
1E
100
AcDbEntity
  8
PLAIN_
  6
SOLID
 62
     6
100
AcDbLine
 10
-458.231994629
 20
340.2424011229999
 30
0.0
 11
-458.231994629
 21
358.242401123
 31
0.0
  0
LINE
  5
67A
330
1E
100
AcDbEntity
  8
PLAIN_
  6
L_DASH
 62
     6
100
AcDbLine
 10
-452.231994629
 20
343.517410278
 30
0.0
 11
-459.231994629
 21
343.517410278
 31
0.0
  0
ARC
  5
67B
330
1E
100
AcDbEntity
  8
PLAIN_
  6
L_DASH
 62
     7
100
AcDbCircle
 10
-9.402660184
 20
261.308832525
 30
0.0
 40
7.0
100
AcDbArc
 50
0.0
 51
180.000039977
  0
LINE
  5
67C
330
1E
100
AcDbEntity
  8
PLAIN_
  6
SOLID
 62
     6
100
AcDbLine
 10
-459.231994629
 20
341.2424011229999
 30
0.0
 11
-459.231994629
 21
357.242401123
 31
0.0
  0
ARC
  5
67D
330
1E
100
AcDbEntity
  8
PLAIN_
  6
SOLID
 62
     6
100
AcDbCircle
 10
-458.231994629
 20
357.242401123
 30
0.0
 40
1.0
100
AcDbArc
 50
90.00001798600001
 51
180.0
  0
ARC
  5
67E
330
1E
100
AcDbEntity
  8
PLAIN_
  6
SOLID
 62
     6
100
AcDbCircle
 10
-458.231994629
 20
341.2424011229999
 30
0.0
 40
1.0
100
AcDbArc
 50
180.0
 51
269.9999820139999
  0
LINE
  5
67F
330
1E
100
AcDbEntity
  8
PLAIN_
  6
L_DASH
 62
     6
100
AcDbLine
 10
-452.231994629
 20
346.3798980709999
 30
0.0
 11
-459.231994629
 21
346.3798980709999
 31
0.0
  0
LINE
  5
680
330
1E
100
AcDbEntity
  8
PLAIN_
  6
L_DASH
 62
     6
100
AcDbLine
 10
-452.231994629
 20
343.517410278
 30
0.0
 11
-452.231994629
 21
354.967391968
 31
0.0
  0
LINE
  5
681
330
1E
100
AcDbEntity
  8
PLAIN_
  6
L_DASH
 62
     6
100
AcDbLine
 10
-452.231994629
 20
354.967391968
 30
0.0
 11
-459.231994629
 21
354.967391968
 31
0.0
  0
LINE
  5
682
330
1E
100
AcDbEntity
  8
PLAIN_
  6
L_DASH
 62
     6
100
AcDbLine
 10
-452.231994629
 20
352.1049041749999
 30
0.0
 11
-459.231994629
 21
352.1049041749999
 31
0.0
  0
ARC
  5
683
330
1E
100
AcDbEntity
  8
PLAIN_
  6
SOLID
 62
     4
100
AcDbCircle
 10
-451.51776123
 20
303.269622803
 30
0.0
 40
3.0
100
AcDbArc
 50
0.000022312
 51
59.99994201899999
  0
LINE
  5
684
330
1E
100
AcDbEntity
  8
PLAIN_
  6
SOLID
 62
     4
100
AcDbLine
 10
-448.51776123
 20
297.4657897949999
 30
0.0
 11
-404.517730713
 21
297.4657897949999
 31
0.0
  0
LINE
  5
685
330
1E
100
AcDbEntity
  8
PLAIN_
  6
SOLID
 62
     4
100
AcDbLine
 10
-404.517730713
 20
297.4657897949999
 30
0.0
 11
-404.517730713
 21
297.9657897949999
 31
0.0
  0
ARC
  5
686
330
1E
100
AcDbEntity
  8
PLAIN_
  6
SOLID
 62
     4
100
AcDbCircle
 10
-401.517730713
 20
297.9657897949999
 30
0.0
 40
3.0
100
AcDbArc
 50
131.810314066
 51
180.0
  0
LINE
  5
687
330
1E
100
AcDbEntity
  8
PLAIN_
  6
SOLID
 62
     4
100
AcDbLine
 10
-447.481811523
 20
305.4657745359999
 30
0.0
 11
-405.732055664
 21
305.4657745359999
 31
0.0
  0
LINE
  5
688
330
1E
100
AcDbEntity
  8
PLAIN_
  6
SOLID
 62
     4
100
AcDbLine
 10
-436.517730713
 20
365.7805023189999
 30
0.0
 11
-436.517730713
 21
391.4010772709999
 31
0.0
  0
ARC
  5
689
330
1E
100
AcDbEntity
  8
PLAIN_
  6
SOLID
 62
     4
100
AcDbCircle
 10
-442.51776123
 20
365.7805023189999
 30
0.0
 40
6.0
100
AcDbArc
 50
272.0001414409999
 51
359.999984518
  0
ARC
  5
68A
330
1E
100
AcDbEntity
  8
PLAIN_
  6
SOLID
 62
     4
100
AcDbCircle
 10
-442.51776123
 20
391.4010772709999
 30
0.0
 40
6.0
100
AcDbArc
 50
359.999991349
 51
88.000134955
  0
ARC
  5
68B
330
1E
100
AcDbEntity
  8
PLAIN_
  6
SOLID
 62
     4
100
AcDbCircle
 10
-390.517730713
 20
427.289360046
 30
0.0
 40
3.0
100
AcDbArc
 50
92.00015009199999
 51
180.0
  0
LINE
  5
68C
330
1E
100
AcDbEntity
  8
PLAIN_
  6
SOLID
 62
     4
100
AcDbLine
 10
-390.622436523
 20
430.287528992
 30
0.0
 11
-385.8076171329999
 21
430.455680847
 31
0.0
  0
LINE
  5
68D
330
1E
100
AcDbEntity
  8
PLAIN_
  6
SOLID
 62
     4
100
AcDbLine
 10
-393.517730713
 20
423.0818405149999
 30
0.0
 11
-393.517730713
 21
427.289360046
 31
0.0
  0
LINE
  5
68E
330
1E
100
AcDbEntity
  8
PLAIN_
  6
SOLID
 62
     4
100
AcDbLine
 10
-446.266906738
 20
418.3427352909999
 30
0.0
 11
-396.413024499
 21
420.0836715109999
 31
0.0
  0
LINE
  5
68F
330
1E
100
AcDbEntity
  8
PLAIN_
  6
SOLID
 62
     4
100
AcDbLine
 10
-446.266906738
 20
397.5356521609999
 30
0.0
 11
-396.413024499
 21
395.79472356
 31
0.0
  0
LINE
  5
690
330
1E
100
AcDbEntity
  8
PLAIN_
  6
SOLID
 62
     4
100
AcDbLine
 10
-393.517730713
 20
364.3850555419999
 30
0.0
 11
-393.517730713
 21
392.796554565
 31
0.0
  0
LINE
  5
691
330
1E
100
AcDbEntity
  8
PLAIN_
  6
SOLID
 62
     4
100
AcDbLine
 10
-446.266906738
 20
359.6459350589999
 30
0.0
 11
-396.413024499
 21
361.3868712789999
 31
0.0
  0
LINE
  5
692
330
1E
100
AcDbEntity
  8
PLAIN_
  6
SOLID
 62
     4
100
AcDbLine
 10
-446.266906738
 20
338.838867188
 30
0.0
 11
-396.413024499
 21
337.097930967
 31
0.0
  0
ARC
  5
693
330
1E
100
AcDbEntity
  8
PLAIN_
  6
SOLID
 62
     4
100
AcDbCircle
 10
-396.517730713
 20
334.099777222
 30
0.0
 40
3.0
100
AcDbArc
 50
0.000008651
 51
87.99985172899999
  0
ARC
  5
694
330
1E
100
AcDbEntity
  8
PLAIN_
  6
SOLID
 62
     4
100
AcDbCircle
 10
-396.517730713
 20
364.3850555419999
 30
0.0
 40
3.0
100
AcDbArc
 50
272.00012778
 51
359.999991349
  0
ARC
  5
695
330
1E
100
AcDbEntity
  8
PLAIN_
  6
SOLID
 62
     4
100
AcDbCircle
 10
-396.517730713
 20
392.796554565
 30
0.0
 40
3.0
100
AcDbArc
 50
0.000008651
 51
87.99985855899999
  0
ARC
  5
696
330
1E
100
AcDbEntity
  8
PLAIN_
  6
SOLID
 62
     4
100
AcDbCircle
 10
-396.517730713
 20
423.0818405149999
 30
0.0
 40
3.0
100
AcDbArc
 50
272.0001414409999
 51
359.999991349
  0
LINE
  5
697
330
1E
100
AcDbEntity
  8
PLAIN_
  6
SOLID
 62
     4
100
AcDbLine
 10
-393.517730713
 20
305.001876831
 30
0.0
 11
-393.517730713
 21
334.099777222
 31
0.0
  0
ARC
  5
698
330
1E
100
AcDbEntity
  8
PLAIN_
  6
SOLID
 62
     4
100
AcDbCircle
 10
-405.517730713
 20
302.4379272459999
 30
0.0
 40
3.0
100
AcDbArc
 50
311.810288339
 51
330.61256969
  0
LINE
  5
699
330
1E
100
AcDbEntity
  8
PLAIN_
  6
SOLID
 62
     4
100
AcDbLine
 10
-385.517730713
 20
300.9657897949999
 30
0.0
 11
-402.9037780759999
 21
300.9657897949999
 31
0.0
  0
LINE
  5
69A
330
1E
100
AcDbEntity
  8
PLAIN_
  6
CENTER
 62
     2
100
AcDbLine
 10
-409.4820251459999
 20
312.965789795
 30
0.0
 11
-462.160339355
 21
312.965789795
 31
0.0
  0
LINE
  5
69B
330
1E
100
AcDbEntity
  8
PLAIN_
  6
CENTER
 62
     2
100
AcDbLine
 10
-409.4789428709999
 20
349.242401123
 30
0.0
 11
-462.87487793
 21
349.242401123
 31
0.0
  0
LINE
  5
69C
330
1E
100
AcDbEntity
  8
PLAIN_
  6
CENTER
 62
     2
100
AcDbLine
 10
-409.471313477
 20
407.9391937259999
 30
0.0
 11
-462.87487793
 21
407.9391937259999
 31
0.0
  0
LINE
  5
69D
330
1E
100
AcDbEntity
  8
PLAIN_
  6
CENTER
 62
     2
100
AcDbLine
 10
-373.8031158449999
 20
365.4657897949999
 30
0.0
 11
-467.517730713
 21
365.4657897949999
 31
0.0
  0
TEXT
  5
69E
330
1E
100
AcDbEntity
  8
PLAIN_
  6
SOLID
 62
     7
100
AcDbText
 10
-432.3082885739999
 20
367.981262207
 30
0.0
 40
8.0
  1
D 40
 41
0.808230758
100
AcDbText
  0
LINE
  5
69F
330
1E
100
AcDbEntity
  8
PLAIN_
  6
SOLID
 62
     7
100
AcDbLine
 10
-384.517730713
 20
302.9657897949999
 30
0.0
 11
-385.5177306959999
 21
303.9657897779999
 31
0.0
  0
LINE
  5
6A0
330
1E
100
AcDbEntity
  8
PLAIN_
  6
SOLID
 62
     7
100
AcDbLine
 10
-384.517730713
 20
302.9657897949999
 30
0.0
 11
-385.517730679
 21
303.965789761
 31
0.0
  0
LINE
  5
6A1
330
1E
100
AcDbEntity
  8
PLAIN_
  6
L_DASH
 62
     7
100
AcDbLine
 10
-16.402652712
 20
249.5193266309999
 30
0.0
 11
-16.402652712
 21
261.308835987
 31
0.0
  0
ARC
  5
6A2
330
1E
100
AcDbEntity
  8
PLAIN_
  6
L_DASH
 62
     7
100
AcDbCircle
 10
-9.402482277
 20
365.8088372149999
 30
0.0
 40
116.5
100
AcDbArc
 50
265.2721764409999
 51
266.555137484
  0
ARC
  5
6A3
330
1E
100
AcDbEntity
  8
PLAIN_
  6
L_DASH
 62
     7
100
AcDbCircle
 10
-18.180420977
 20
259.6711876129999
 30
0.0
 40
10.0
100
AcDbArc
 50
240.47825432
 51
265.271754115
  0
LINE
  5
6A4
330
1E
100
AcDbEntity
  8
PLAIN_
  6
L_DASH
 62
     7
100
AcDbLine
 10
-104.644980322
 20
310.2096396719999
 30
0.0
 11
-23.10794319699999
 21
250.9695109209999
 31
0.0
  0
LINE
  5
6A5
330
1E
100
AcDbEntity
  8
PLAIN_
  6
SOLID
 62
     4
100
AcDbLine
 10
-114.3861959839999
 20
317.2870473709999
 30
0.0
 11
-104.644980356
 21
310.2096395959999
 31
0.0
  0
ARC
  5
6A6
330
1E
100
AcDbEntity
  8
PLAIN_
  6
SOLID
 62
     4
100
AcDbCircle
 10
-107.6331038279999
 20
324.6623674779999
 30
0.0
 40
10.0
100
AcDbArc
 50
202.728139564
 51
227.521743172
  0
LINE
  5
6A7
330
1E
100
AcDbEntity
  8
PLAIN_
  6
SOLID
 62
     7
100
AcDbLine
 10
-379.517730713
 20
302.9657897949999
 30
0.0
 11
-384.517730713
 21
302.9657897949999
 31
0.0
  0
ARC
  5
6A8
330
1E
100
AcDbEntity
  8
PLAIN_
  6
SOLID
 62
     4
100
AcDbCircle
 10
-9.402655714999999
 20
365.808841266
 30
0.0
 40
116.5
100
AcDbArc
 50
201.4447814519999
 51
202.7277178499999
  0
LINE
  5
6A9
330
1E
100
AcDbEntity
  8
PLAIN_
  6
SOLID
 62
     4
100
AcDbLine
 10
-117.8375996099999
 20
323.21648875
 30
0.0
 11
-106.625104285
 21
326.859630174
 31
0.0
  0
LINE
  5
6AA
330
1E
100
AcDbEntity
  8
PLAIN_
  6
SOLID
 62
     7
100
AcDbLine
 10
-379.517730713
 20
427.9657897949999
 30
0.0
 11
-384.517730713
 21
427.9657897949999
 31
0.0
  0
LINE
  5
6AB
330
1E
100
AcDbEntity
  8
PLAIN_
  6
SOLID
 62
     7
100
AcDbLine
 10
-384.517730713
 20
427.9657897949999
 30
0.0
 11
-385.517730713
 21
426.965789795
 31
0.0
  0
LINE
  5
6AC
330
1E
100
AcDbEntity
  8
PLAIN_
  6
SOLID
 62
     7
100
AcDbLine
 10
-385.517730713
 20
426.965789795
 30
0.0
 11
-385.517730713
 21
303.9657897949999
 31
0.0
  0
ARC
  5
6AD
330
1E
100
AcDbEntity
  8
PLAIN_
  6
SOLID
 62
     4
100
AcDbCircle
 10
-108.7880608739999
 20
333.51656291
 30
0.0
 40
7.0
100
AcDbArc
 50
288.000001409
 51
108.000041385
  0
LINE
  5
6AE
330
1E
100
AcDbEntity
  8
PLAIN_
  6
SOLID
 62
     4
100
AcDbLine
 10
-122.163668666
 20
336.530795259
 30
0.0
 11
-110.9511789689999
 21
340.1739540059999
 31
0.0
  0
ARC
  5
6AF
330
1E
100
AcDbEntity
  8
PLAIN_
  6
SOLID
 62
     4
100
AcDbCircle
 10
-9.402601882999999
 20
365.80867205
 30
0.0
 40
116.5
100
AcDbArc
 50
193.272176087
 51
194.5551371299999
  0
ARC
  5
6B0
330
1E
100
AcDbEntity
  8
PLAIN_
  6
SOLID
 62
     4
100
AcDbCircle
 10
-113.058019615
 20
341.358649309
 30
0.0
 40
10.0
100
AcDbArc
 50
168.478253968
 51
193.2717537629999
  0
LINE
  5
6B1
330
1E
100
AcDbEntity
  8
PLAIN_
  6
SOLID
 62
     4
100
AcDbLine
 10
-121.247663432
 20
348.3075576509999
 30
0.0
 11
-122.85651016
 21
343.356037059
 31
0.0
  0
LINE
  5
6B2
330
1E
100
AcDbEntity
  8
PLAIN_
  6
L_DASH
 62
     7
100
AcDbLine
 10
-87.99131630199999
 20
450.660059956
 30
0.0
 11
-121.2476606779999
 21
348.3075563629999
 31
0.0
  0
ARC
  5
6B3
330
1E
100
AcDbEntity
  8
PLAIN_
  6
L_DASH
 62
     7
100
AcDbCircle
 10
-78.89012822499999
 20
446.516573464
 30
0.0
 40
10.0
100
AcDbArc
 50
130.7281392119999
 51
155.5217428199999
  0
ARC
  5
6B4
330
1E
100
AcDbEntity
  8
PLAIN_
  6
L_DASH
 62
     7
100
AcDbCircle
 10
-9.402643689999999
 20
365.808851203
 30
0.0
 40
116.5
100
AcDbArc
 50
129.4447810999999
 51
130.727717498
  0
LINE
  5
6B5
330
1E
100
AcDbEntity
  8
PLAIN_
  6
L_DASH
 62
     7
100
AcDbLine
 10
-83.41862481499999
 20
455.774838019
 30
0.0
 11
-76.48893981899999
 21
446.2369138879999
 31
0.0
  0
ARC
  5
6B6
330
1E
100
AcDbEntity
  8
PLAIN_
  6
L_DASH
 62
     7
100
AcDbCircle
 10
-70.826204113
 20
450.3511259819999
 30
0.0
 40
7.0
100
AcDbArc
 50
216.0000010559999
 51
36.000041033
  0
LINE
  5
6B7
330
1E
100
AcDbEntity
  8
PLAIN_
  6
L_DASH
 62
     7
100
AcDbLine
 10
-72.09279570699999
 20
464.0035211639999
 30
0.0
 11
-65.16309597600001
 21
454.4656077389999
 31
0.0
  0
ARC
  5
6B8
330
1E
100
AcDbEntity
  8
PLAIN_
  6
L_DASH
 62
     7
100
AcDbCircle
 10
-9.402790450999999
 20
365.808735145
 30
0.0
 40
116.5
100
AcDbArc
 50
121.27217617
 51
122.555137213
  0
ARC
  5
6B9
330
1E
100
AcDbEntity
  8
PLAIN_
  6
L_DASH
 62
     7
100
AcDbCircle
 10
-64.687445528
 20
456.83541509
 30
0.0
 40
10.0
100
AcDbArc
 50
96.47825361599998
 51
121.271753411
  0
LINE
  5
6BA
330
1E
100
AcDbEntity
  8
PLAIN_
  6
L_DASH
 62
     7
100
AcDbLine
 10
-9.402657255999999
 20
466.771566625
 30
0.0
 11
-65.815704814
 21
466.771566625
 31
0.0
  0
LINE
  5
6BB
330
1E
100
AcDbEntity
  8
PLAIN_
  6
L_DASH
 62
     7
100
AcDbLine
 10
47.010422802
 20
466.7715651179999
 30
0.0
 11
-9.402657104999999
 21
466.7715651179999
 31
0.0
  0
ARC
  5
6BC
330
1E
100
AcDbEntity
  8
PLAIN_
  6
L_DASH
 62
     7
100
AcDbCircle
 10
45.88215214499999
 20
456.835412493
 30
0.0
 40
10.0
100
AcDbArc
 50
58.72813886
 51
83.521742467
  0
ARC
  5
6BD
330
1E
100
AcDbEntity
  8
PLAIN_
  6
L_DASH
 62
     7
100
AcDbCircle
 10
-9.402657812000001
 20
365.808822453
 30
0.0
 40
116.5
100
AcDbArc
 50
57.44478074799999
 51
58.727717145
  0
LINE
  5
6BE
330
1E
100
AcDbEntity
  8
PLAIN_
  6
L_DASH
 62
     7
100
AcDbLine
 10
53.28790518699999
 20
464.003230426
 30
0.0
 11
46.35819072
 21
454.465327708
 31
0.0
  0
ARC
  5
6BF
330
1E
100
AcDbEntity
  8
PLAIN_
  6
L_DASH
 62
     7
100
AcDbCircle
 10
52.020900014
 20
450.35109912
 30
0.0
 40
7.0
100
AcDbArc
 50
144.000000704
 51
324.0000406809999
  0
LINE
  5
6C0
330
1E
100
AcDbEntity
  8
PLAIN_
  6
L_DASH
 62
     7
100
AcDbLine
 10
64.61372158199999
 20
455.774529784
 30
0.0
 11
57.68402185100001
 21
446.236616359
 31
0.0
  0
ARC
  5
6C1
330
1E
100
AcDbEntity
  8
PLAIN_
  6
L_DASH
 62
     7
100
AcDbCircle
 10
-9.402794188999999
 20
365.808933599
 30
0.0
 40
116.5
100
AcDbArc
 50
49.27217581699999
 51
50.555136861
  0
ARC
  5
6C2
330
1E
100
AcDbEntity
  8
PLAIN_
  6
L_DASH
 62
     7
100
AcDbCircle
 10
60.084828603
 20
446.51655928
 30
0.0
 40
10.0
100
AcDbArc
 50
24.478255025
 51
49.27175481899999
  0
LINE
  5
6C3
330
1E
100
AcDbEntity
  8
PLAIN_
  6
L_DASH
 62
     7
100
AcDbLine
 10
86.61860741700001
 20
397.0080381909999
 30
0.0
 11
69.186018598
 21
450.660035189
 31
0.0
  0
LINE
  5
6C4
330
1E
100
AcDbEntity
  8
PLAIN_
  6
L_DASH
 62
     7
100
AcDbLine
 10
104.051206426
 20
343.356010332
 30
0.0
 11
86.618607281
 21
397.008037988
 31
0.0
  0
ARC
  5
6C5
330
1E
100
AcDbEntity
  8
PLAIN_
  6
L_DASH
 62
     7
100
AcDbCircle
 10
94.25271346
 20
341.3586229459999
 30
0.0
 40
10.0
100
AcDbArc
 50
346.7281402689999
 51
11.521743876
  0
ARC
  5
6C6
330
1E
100
AcDbEntity
  8
PLAIN_
  6
L_DASH
 62
     7
100
AcDbCircle
 10
-9.402652234999999
 20
365.808832723
 30
0.0
 40
116.5
100
AcDbArc
 50
345.4447803949999
 51
346.727716793
  0
LINE
  5
6C7
330
1E
100
AcDbEntity
  8
PLAIN_
  6
L_DASH
 62
     7
100
AcDbLine
 10
103.358212417
 20
336.530307338
 30
0.0
 11
92.145728348
 21
340.1734834069999
 31
0.0
  0
ARC
  5
6C8
330
1E
100
AcDbEntity
  8
PLAIN_
  6
L_DASH
 62
     7
100
AcDbCircle
 10
89.98275391600001
 20
333.5165574219999
 30
0.0
 40
7.0
100
AcDbArc
 50
72.000000352
 51
252.000040329
  0
LINE
  5
6C9
330
1E
100
AcDbEntity
  8
PLAIN_
  6
L_DASH
 62
     7
100
AcDbLine
 10
99.03212279200001
 20
323.2160075129999
 30
0.0
 11
87.819633094
 21
326.859166259
 31
0.0
  0
ARC
  5
6CA
330
1E
100
AcDbEntity
  8
PLAIN_
  6
L_DASH
 62
     7
100
AcDbCircle
 10
-9.402602397999999
 20
365.8089998459999
 30
0.0
 40
116.5
100
AcDbArc
 50
337.2721763559999
 51
338.5551373989999
  0
ARC
  5
6CB
330
1E
100
AcDbEntity
  8
PLAIN_
  6
L_DASH
 62
     7
100
AcDbCircle
 10
88.827767811
 20
324.6623700409999
 30
0.0
 40
10.0
100
AcDbArc
 50
312.4782546729999
 51
337.2717544669999
  0
INSERT
  5
6CC
330
1E
100
AcDbEntity
  8
PLAIN_
100
AcDbBlockReference
  2
*D41
 10
0.0
 20
0.0
 30
0.0
  0
LWPOLYLINE
  5
6CD
330
1E
100
AcDbEntity
  8
PLAIN_
  6
SOLID
 62
     7
100
AcDbPolyline
 90
       97
 70
     0
 43
0.0
 10
-129.496370752
 20
351.0298346309999
 10
-128.752681481
 20
351.055476448
 10
-128.003325271
 20
351.008632472
 10
-127.2589989189999
 20
350.8958284859999
 10
-126.530399224
 20
350.7235902719999
 10
-126.010178295
 20
350.563154154
 10
-125.501821335
 20
350.377980869
 10
-124.511092948
 20
349.948731525
 10
-122.566333672
 20
348.961782831
 10
-121.153297925
 20
348.2640241869999
 10
-120.433517977
 20
347.946986624
 10
-119.7058412339999
 20
347.664831794
 10
-118.970976137
 20
347.4278008669999
 10
-118.229631128
 20
347.2461350119999
 10
-117.482514647
 20
347.130075399
 10
-117.1070134929999
 20
347.099848299
 10
-116.730335137
 20
347.089863199
 10
-116.143215627
 20
347.1149403609999
 10
-115.553894452
 20
347.1814134399999
 10
-114.370343868
 20
347.3964822799999
 10
-112.589110274
 20
347.7666482369999
 10
-111.995487114
 20
347.860655206
 10
-111.1841983289999
 20
347.940263988
 10
-110.373792359
 20
347.964203672
 10
-109.5637144389999
 20
347.9371382869999
 10
-108.753409804
 20
347.8637318619999
 10
-107.9423236879999
 20
347.7486484259999
 10
-107.1299013229999
 20
347.5965520079999
 10
-106.315587946
 20
347.4121066369999
 10
-104.8283325129999
 20
347.007339501
 10
-104.1639807569999
 20
346.7938919439999
 10
-103.5139353129999
 20
346.554299944
 10
-102.8863579739999
 20
346.2832297759999
 10
-102.289410532
 20
345.975347714
 10
-101.731254779
 20
345.6253200309999
 10
-101.220052507
 20
345.2278130009999
 10
-100.984609486
 20
345.009587942
 10
-100.7639655079999
 20
344.777492898
 10
-100.392180791
 20
344.305216499
 10
-100.0704885879999
 20
343.7888904869999
 10
-99.79352764099999
 20
343.235423039
 10
-99.555936695
 20
342.6517223299999
 10
-99.352354493
 20
342.044696536
 10
-99.17741977799998
 20
341.42125383
 10
-98.89204778299999
 20
340.15275039
 10
-98.614118824
 20
338.574742812
 10
-98.41282362299999
 20
337.011104805
 10
-98.285971739
 20
335.44918015
 10
-98.231372734
 20
333.8763126309999
 10
-98.232297012
 20
332.991062962
 10
-98.25944830600001
 20
332.1026482659999
 10
-98.31727772
 20
331.2152382809999
 10
-98.410236361
 20
330.3330027439999
 10
-98.54277533500001
 20
329.4601113929999
 10
-98.719345747
 20
328.600733964
 10
-98.94439870200001
 20
327.759040195
 10
-99.22238530799999
 20
326.9391998229999
 10
-99.50842419799998
 20
326.2488547419999
 10
-99.83396031600001
 20
325.575671795
 10
-100.195405261
 20
324.917274422
 10
-100.5891706329999
 20
324.271286063
 10
-101.011668032
 20
323.635330161
 10
-101.4593090579999
 20
323.007030154
 10
-102.4156683889999
 20
321.763891595
 10
-103.1948668649999
 20
320.7894937979999
 10
-103.569405857
 20
320.2970193929999
 10
-103.9187926889999
 20
319.797955274
 10
-104.2316933639999
 20
319.2899969079999
 10
-104.496773886
 20
318.77083976
 10
-104.702700257
 20
318.2381793
 10
-104.838138482
 20
317.689710992
 10
-104.8847314879999
 20
317.317600194
 10
-104.899971602
 20
316.938496432
 10
-104.8882629439999
 20
316.5533220139999
 10
-104.854009632
 20
316.1629992489999
 10
-104.735485521
 20
315.3705979079999
 10
-104.421682677
 20
313.764596616
 10
-104.296869846
 20
312.965753597
 10
-104.2578999929999
 20
312.5705995729999
 10
-104.2404266739999
 20
312.179520283
 10
-104.2488540079999
 20
311.7934380359999
 10
-104.2875861129999
 20
311.41327514
 10
-104.3412791479999
 20
311.120743726
 10
-104.4150647649999
 20
310.8325475009999
 10
-104.618431616
 20
310.2697756409999
 10
-104.888722406
 20
309.7261896029999
 10
-105.2169728729999
 20
309.2030194339999
 10
-105.5942187579999
 20
308.701495179
 10
-106.0114957989999
 20
308.222846884
 10
-106.459839736
 20
307.7683045929999
 10
-106.9302863089999
 20
307.3390983519999
 10
-107.5934558759999
 20
306.7960397129999
 10
-108.277868836
 20
306.295585182
 10
-108.980412766
 20
305.831090851
 10
-109.697975242
 20
305.3959128109999
 10
-111.165706145
 20
304.586929965
 10
-113.159049803
 20
303.555172841
  0
LINE
  5
730
330
1E
100
AcDbEntity
  8
PLAIN_
  6
CENTER
 62
     2
100
AcDbLine
 10
-522.883503753
 20
365.4657897949999
 30
0.0
 11
-200.8143373889999
 21
365.4657897949999
 31
0.0
  0
LINE
  5
731
330
1E
100
AcDbEntity
  8
PLAIN_
  6
SOLID
 62
     7
100
AcDbLine
 10
-377.5177307279999
 20
302.965789384
 30
0.0
 11
-378.517730711
 21
303.9657893659999
 31
0.0
  0
LINE
  5
732
330
1E
100
AcDbEntity
  8
PLAIN_
  6
SOLID
 62
     7
100
AcDbLine
 10
-368.51772989
 20
302.965789384
 30
0.0
 11
-377.5177307279999
 21
302.965789384
 31
0.0
  0
LINE
  5
733
330
1E
100
AcDbEntity
  8
PLAIN_
  6
SOLID
 62
     7
100
AcDbLine
 10
-312.5177307279999
 20
486.4657897949999
 30
0.0
 11
-311.517730728
 21
485.465789882
 31
0.0
  0
LINE
  5
734
330
1E
100
AcDbEntity
  8
PLAIN_
  6
SOLID
 62
     7
100
AcDbLine
 10
-312.5177307279999
 20
244.4657897949999
 30
0.0
 11
-311.517730728
 21
245.465789707
 31
0.0
  0
LINE
  5
735
330
1E
100
AcDbEntity
  8
PLAIN_
  6
SOLID
 62
     7
100
AcDbLine
 10
-312.81773068
 20
269.9657848449999
 30
0.0
 11
-312.81773068
 21
267.5658183749999
 31
0.0
  0
LINE
  5
736
330
1E
100
AcDbEntity
  8
PLAIN_
  6
SOLID
 62
     7
100
AcDbLine
 10
-311.517730728
 20
250.9657848509999
 30
0.0
 11
-312.81773068
 21
250.9657848509999
 31
0.0
  0
LINE
  5
737
330
1E
100
AcDbEntity
  8
PLAIN_
  6
SOLID
 62
     7
100
AcDbLine
 10
-311.517730728
 20
276.4658199009999
 30
0.0
 11
-316.588752004
 21
276.9094768879999
 31
0.0
  0
LINE
  5
738
330
1E
100
AcDbEntity
  8
PLAIN_
  6
SOLID
 62
     7
100
AcDbLine
 10
-324.517730728
 20
271.4658199009999
 30
0.0
 11
-324.517730728
 21
267.5658183749999
 31
0.0
  0
LINE
  5
739
330
1E
100
AcDbEntity
  8
PLAIN_
  6
SOLID
 62
     7
100
AcDbLine
 10
-345.517730728
 20
452.965789384
 30
0.0
 11
-349.517730713
 21
452.965789384
 31
0.0
  0
LINE
  5
73A
330
1E
100
AcDbEntity
  8
PLAIN_
  6
SOLID
 62
     7
100
AcDbLine
 10
-345.517730728
 20
365.4657897949999
 30
0.0
 11
-345.517730728
 21
484.46578978
 31
0.0
  0
LINE
  5
73B
330
1E
100
AcDbEntity
  8
PLAIN_
  6
SOLID
 62
     7
100
AcDbLine
 10
-377.5177307279999
 20
427.965789384
 30
0.0
 11
-378.517730711
 21
426.9657894009999
 31
0.0
  0
LINE
  5
73C
330
1E
100
AcDbEntity
  8
PLAIN_
  6
SOLID
 62
     7
100
AcDbLine
 10
-345.517730728
 20
277.965789384
 30
0.0
 11
-349.5177298899999
 21
277.965789384
 31
0.0
  0
LINE
  5
73D
330
1E
100
AcDbEntity
  8
PLAIN_
  6
SOLID
 62
     7
100
AcDbLine
 10
-345.517733422
 20
271.4658122719999
 30
0.0
 11
-324.517733422
 21
271.4658122719999
 31
0.0
  0
LINE
  5
73E
330
1E
100
AcDbEntity
  8
PLAIN_
  6
CENTER
 62
     2
100
AcDbLine
 10
-354.5177334219999
 20
260.4658199009999
 30
0.0
 11
-296.495547142
 21
260.4658199009999
 31
0.0
  0
INSERT
  5
73F
330
1E
100
AcDbEntity
  8
PLAIN_
100
AcDbBlockReference
  2
*U42
 10
0.0
 20
0.0
 30
0.0
  0
LINE
  5
740
330
1E
100
AcDbEntity
  8
PLAIN_
  6
SOLID
 62
     7
100
AcDbLine
 10
-345.517733422
 20
249.465812272
 30
0.0
 11
-324.517733422
 21
249.465812272
 31
0.0
  0
LINE
  5
741
330
1E
100
AcDbEntity
  8
PLAIN_
  6
SOLID
 62
     7
100
AcDbLine
 10
-368.517730713
 20
427.965789384
 30
0.0
 11
-377.5177307279999
 21
427.965789384
 31
0.0
  0
LINE
  5
742
330
1E
100
AcDbEntity
  8
PLAIN_
  6
SOLID
 62
     7
100
AcDbLine
 10
-311.517730728
 20
269.9657848449999
 30
0.0
 11
-312.81773068
 21
269.9657848449999
 31
0.0
  0
LINE
  5
743
330
1E
100
AcDbEntity
  8
PLAIN_
  6
SOLID
 62
     7
100
AcDbLine
 10
-313.317736819
 20
246.9657902059999
 30
0.0
 11
-313.317736819
 21
249.965790206
 31
0.0
  0
LINE
  5
744
330
1E
100
AcDbEntity
  8
PLAIN_
  6
SOLID
 62
     7
100
AcDbLine
 10
-313.317736819
 20
249.965790206
 30
0.0
 11
-311.517730728
 21
249.965790206
 31
0.0
  0
LINE
  5
745
330
1E
100
AcDbEntity
  8
PLAIN_
  6
SOLID
 62
     7
100
AcDbLine
 10
-313.317736819
 20
246.9657902059999
 30
0.0
 11
-311.517745987
 21
246.9657902059999
 31
0.0
  0
LINE
  5
746
330
1E
100
AcDbEntity
  8
PLAIN_
  6
SOLID
 62
     7
100
AcDbLine
 10
-312.81773068
 20
253.365821427
 30
0.0
 11
-312.81773068
 21
250.9657848509999
 31
0.0
  0
LINE
  5
747
330
1E
100
AcDbEntity
  8
PLAIN_
  6
SOLID
 62
     7
100
AcDbLine
 10
-311.517730728
 20
253.365821427
 30
0.0
 11
-311.517730728
 21
245.465789707
 31
0.0
  0
LINE
  5
748
330
1E
100
AcDbEntity
  8
PLAIN_
  6
SOLID
 62
     7
100
AcDbLine
 10
-324.517730728
 20
253.365821427
 30
0.0
 11
-324.517730728
 21
249.4658199009999
 31
0.0
  0
LINE
  5
749
330
1E
100
AcDbEntity
  8
PLAIN_
  6
SOLID
 62
     7
100
AcDbLine
 10
-311.517730728
 20
485.465789882
 30
0.0
 11
-311.517730728
 21
267.5658183749999
 31
0.0
  0
LINE
  5
74A
330
1E
100
AcDbEntity
  8
PLAIN_
  6
SOLID
 62
     2
100
AcDbLine
 10
-324.517730728
 20
267.468359744
 30
0.0
 11
-290.664703384
 21
267.468359744
 31
0.0
  0
LINE
  5
74B
330
1E
100
AcDbEntity
  8
PLAIN_
  6
SOLID
 62
     2
100
AcDbLine
 10
-324.517730728
 20
253.4643466829999
 30
0.0
 11
-290.664703384
 21
253.4643466829999
 31
0.0
  0
LINE
  5
74C
330
1E
100
AcDbEntity
  8
PLAIN_
  6
SOLID
 62
     2
100
AcDbLine
 10
-316.177719131
 20
266.141470706
 30
0.0
 11
-289.497726455
 21
266.141470706
 31
0.0
  0
LINE
  5
74D
330
1E
100
AcDbEntity
  8
PLAIN_
  6
SOLID
 62
     2
100
AcDbLine
 10
-316.177719131
 20
254.7912357209999
 30
0.0
 11
-289.497726455
 21
254.7912357209999
 31
0.0
  0
LINE
  5
74E
330
1E
100
AcDbEntity
  8
PLAIN_
  6
SOLID
 62
     2
100
AcDbLine
 10
-290.664703384
 20
267.468359744
 30
0.0
 11
-290.664703384
 21
253.464363532
 31
0.0
  0
LINE
  5
74F
330
1E
100
AcDbEntity
  8
PLAIN_
  6
SOLID
 62
     2
100
AcDbLine
 10
-289.497726455
 20
254.631354129
 30
0.0
 11
-290.664726471
 21
253.4643541139999
 31
0.0
  0
LINE
  5
750
330
1E
100
AcDbEntity
  8
PLAIN_
  6
SOLID
 62
     2
100
AcDbLine
 10
-289.497726455
 20
266.301352298
 30
0.0
 11
-290.664726471
 21
267.4683523129999
 31
0.0
  0
LINE
  5
751
330
1E
100
AcDbEntity
  8
PLAIN_
  6
SOLID
 62
     2
100
AcDbLine
 10
-289.497726455
 20
266.3008029819999
 30
0.0
 11
-289.497726455
 21
254.6308002029999
 31
0.0
  0
LINE
  5
752
330
1E
100
AcDbEntity
  8
PLAIN_
  6
SOLID
 62
     2
100
AcDbLine
 10
-324.517730728
 20
270.969361103
 30
0.0
 11
-337.354731336
 21
270.969361103
 31
0.0
  0
LINE
  5
753
330
1E
100
AcDbEntity
  8
PLAIN_
  6
SOLID
 62
     2
100
AcDbLine
 10
-324.517730728
 20
270.969361103
 30
0.0
 11
-324.517730728
 21
249.96226195
 31
0.0
  0
LINE
  5
754
330
1E
100
AcDbEntity
  8
PLAIN_
  6
SOLID
 62
     2
100
AcDbLine
 10
-324.517730728
 20
249.96226195
 30
0.0
 11
-337.3547310079999
 21
249.96226195
 31
0.0
  0
LINE
  5
755
330
1E
100
AcDbEntity
  8
PLAIN_
  6
L_DASH
 62
     2
100
AcDbLine
 10
-330.352731004
 20
267.1474341409999
 30
0.0
 11
-338.521731392
 21
267.1474341409999
 31
0.0
  0
LINE
  5
756
330
1E
100
AcDbEntity
  8
PLAIN_
  6
L_DASH
 62
     2
100
AcDbLine
 10
-330.352731004
 20
267.1474341409999
 30
0.0
 11
-326.4954482729999
 21
260.466360711
 31
0.0
  0
LINE
  5
757
330
1E
100
AcDbEntity
  8
PLAIN_
  6
L_DASH
 62
     2
100
AcDbLine
 10
-330.352731004
 20
263.8069018249999
 30
0.0
 11
-338.521731392
 21
263.8069018249999
 31
0.0
  0
LINE
  5
758
330
1E
100
AcDbEntity
  8
PLAIN_
  6
L_DASH
 62
     2
100
AcDbLine
 10
-330.352731004
 20
253.7852959729999
 30
0.0
 11
-330.352731004
 21
267.1474341409999
 31
0.0
  0
ARC
  5
759
330
1E
100
AcDbEntity
  8
PLAIN_
  6
SOLID
 62
     2
100
AcDbCircle
 10
-337.354731336
 20
251.130360163
 30
0.0
 40
1.167000054999999
100
AcDbArc
 50
180.0
 51
269.9999820139999
  0
LINE
  5
75A
330
1E
100
AcDbEntity
  8
PLAIN_
  6
SOLID
 62
     2
100
AcDbLine
 10
-337.354731336
 20
249.963360107
 30
0.0
 11
-337.354731336
 21
270.969361103
 31
0.0
  0
LINE
  5
75B
330
1E
100
AcDbEntity
  8
PLAIN_
  6
L_DASH
 62
     2
100
AcDbLine
 10
-330.352731004
 20
253.7852959729999
 30
0.0
 11
-326.4954482119999
 21
260.466360379
 31
0.0
  0
LINE
  5
75C
330
1E
100
AcDbEntity
  8
PLAIN_
  6
L_DASH
 62
     2
100
AcDbLine
 10
-330.352731004
 20
253.7852959729999
 30
0.0
 11
-338.521731392
 21
253.7852959729999
 31
0.0
  0
LINE
  5
75D
330
1E
100
AcDbEntity
  8
PLAIN_
  6
SOLID
 62
     2
100
AcDbLine
 10
-338.521731392
 20
251.130360163
 30
0.0
 11
-338.521731392
 21
269.8023610479999
 31
0.0
  0
ARC
  5
75E
330
1E
100
AcDbEntity
  8
PLAIN_
  6
SOLID
 62
     2
100
AcDbCircle
 10
-337.354731336
 20
269.8023610479999
 30
0.0
 40
1.167000054999999
100
AcDbArc
 50
90.00001798600001
 51
180.0
  0
LINE
  5
75F
330
1E
100
AcDbEntity
  8
PLAIN_
  6
L_DASH
 62
     2
100
AcDbLine
 10
-330.352731004
 20
257.1258193849999
 30
0.0
 11
-338.521731392
 21
257.1258193849999
 31
0.0
  0
LINE
  5
760
330
1E
100
AcDbEntity
  8
PLAIN_
  6
SOLID
 62
     2
100
AcDbLine
 10
-316.177729622
 20
266.1414806629999
 30
0.0
 11
-321.129716064
 21
267.468360984
 31
0.0
  0
LINE
  5
761
330
1E
100
AcDbEntity
  8
PLAIN_
  6
SOLID
 62
     2
100
AcDbLine
 10
-316.177729622
 20
254.79124945
 30
0.0
 11
-321.129716075
 21
253.464360303
 31
0.0
  0
LINE
  5
762
330
1E
100
AcDbEntity
  8
PLAIN_
  6
SOLID
 62
     2
100
AcDbLine
 10
-316.177729622
 20
267.468360937
 30
0.0
 11
-316.177729622
 21
253.4643602729999
 31
0.0
  0
LINE
  5
763
330
1E
100
AcDbEntity
  8
PLAIN_
  6
CENTER
 62
     2
100
AcDbLine
 10
-344.517737404
 20
260.4658199009999
 30
0.0
 11
-293.3195327759999
 21
260.4658199009999
 31
0.0
  0
LINE
  5
764
330
1E
100
AcDbEntity
  8
PLAIN_
  6
SOLID
 62
     7
100
AcDbLine
 10
-236.11801086
 20
347.4657897949999
 30
0.0
 11
-229.61801086
 21
347.4657897949999
 31
0.0
  0
LINE
  5
765
330
1E
100
AcDbEntity
  8
PLAIN_
  6
SOLID
 62
     7
100
AcDbLine
 10
-228.463310322
 20
349.9657897949999
 30
0.0
 11
-208.6180108599999
 21
349.9657897949999
 31
0.0
  0
ARC
  5
766
330
1E
100
AcDbEntity
  8
PLAIN_
  6
SOLID
 62
     7
100
AcDbCircle
 10
-208.6180108599999
 20
347.9657897949999
 30
0.0
 40
2.0
100
AcDbArc
 50
0.0
 51
90.0
  0
LINE
  5
767
330
1E
100
AcDbEntity
  8
PLAIN_
  6
SOLID
 62
     7
100
AcDbLine
 10
-229.61801086
 20
347.9657897949999
 30
0.0
 11
-228.463310322
 21
349.9657897949999
 31
0.0
  0
LINE
  5
768
330
1E
100
AcDbEntity
  8
PLAIN_
  6
SOLID
 62
     7
100
AcDbLine
 10
-229.61801086
 20
347.9657897949999
 30
0.0
 11
-206.61801086
 21
347.9657897949999
 31
0.0
  0
ARC
  5
769
330
1E
100
AcDbEntity
  8
PLAIN_
  6
SOLID
 62
     7
100
AcDbCircle
 10
-236.11801086
 20
348.9657897949999
 30
0.0
 40
1.5
100
AcDbArc
 50
180.0
 51
270.0
  0
LINE
  5
76A
330
1E
100
AcDbEntity
  8
PLAIN_
  6
SOLID
 62
     7
100
AcDbLine
 10
-208.6180108599999
 20
342.9656829829999
 30
0.0
 11
-206.6177330019999
 21
344.120543943
 31
0.0
  0
LINE
  5
76B
330
1E
100
AcDbEntity
  8
PLAIN_
  6
SOLID
 62
     7
100
AcDbLine
 10
-208.6180108599999
 20
387.965682983
 30
0.0
 11
-206.6177330019999
 21
386.810822024
 31
0.0
  0
ENDSEC
  0
SECTION
  2
OBJECTS
  0
DICTIONARY
  5
C
330
0
100
AcDbDictionary
  3
ACAD_GROUP
350
D
  3
ACAD_PLOTSTYLENAME
350
E
  3
ACAD_MLINESTYLE
350
16
  3
ACAD_PLOTSETTINGS
350
18
  3
ACAD_LAYOUT
350
19
  3
ACDBHEADERROUNDTRIPXREC
350
770
  0
DICTIONARY
  5
792
330
1E
100
AcDbDictionary
280
     1
  3
ACAD_LAYOUTSELFREF
360
793
  0
DICTIONARY
  5
790
330
1A
100
AcDbDictionary
280
     1
  3
ACAD_LAYOUTSELFREF
360
791
  0
DICTIONARY
  5
D
102
{ACAD_REACTORS
330
C
102
}
330
C
100
AcDbDictionary
  0
ACDBDICTIONARYWDFLT
  5
E
102
{ACAD_REACTORS
330
C
102
}
330
C
100
AcDbDictionary
281
     1
  3
Normal
350
F
100
AcDbDictionaryWithDefault
340
F
  0
DICTIONARY
  5
16
102
{ACAD_REACTORS
330
C
102
}
330
C
100
AcDbDictionary
  3
STANDARD
350
17
  0
DICTIONARY
  5
18
102
{ACAD_REACTORS
330
C
102
}
330
C
100
AcDbDictionary
  0
DICTIONARY
  5
19
102
{ACAD_REACTORS
330
C
102
}
330
C
100
AcDbDictionary
  0
DICTIONARY
  5
770
102
{ACAD_REACTORS
330
C
102
}
330
C
100
AcDbDictionary
  3
TSTACKALIGN
350
771
  3
TSTACKSIZE
350
772
  3
HYPERLINKBASE
350
773
  3
STYLESHEET
350
774
  3
LAYOUTDICT
350
775
  3
PLOTSETDICT
350
776
  3
PLOTSTYLNAMDICT
350
777
  3
LWETCUNION
350
778
  3
INSUNITS
350
779
  3
CEPSNTYPE
350
77A
  3
FINGERPRINTGUID
350
77B
  3
VERSIONGUID
350
77C
  3
PSVPSCALE
350
77D
  3
PUCSORTHOREF
350
77E
  3
PUCSORTHOVIEW
350
77F
  3
PUCSBASE
350
780
  3
PUCSORGTOP
350
781
  3
PUCSORGBOTTOM
350
782
  3
PUCSORGLEFT
350
783
  3
PUCSORGRIGHT
350
784
  3
PUCSORGFRONT
350
785
  3
PUCSORGBACK
350
786
  3
UCSORTHOREF
350
787
  3
UCSORTHOVIEW
350
788
  3
UCSBASE
350
789
  3
UCSORGTOP
350
78A
  3
UCSORGBOTTOM
350
78B
  3
UCSORGLEFT
350
78C
  3
UCSORGRIGHT
350
78D
  3
UCSORGFRONT
350
78E
  3
UCSORGBACK
350
78F
  0
XRECORD
  5
793
102
{ACAD_REACTORS
330
792
102
}
330
792
100
AcDbXrecord
340
1E
  0
XRECORD
  5
791
102
{ACAD_REACTORS
330
790
102
}
330
790
100
AcDbXrecord
340
1A
  0
ACDBPLACEHOLDER
  5
F
102
{ACAD_REACTORS
330
E
102
}
330
E
100
AcDbPlaceHolder
280
     0
  0
MLINESTYLE
  5
17
102
{ACAD_REACTORS
330
16
102
}
330
16
100
AcDbMlineStyle
  2
STANDARD
 70
     0
  3

 62
   256
 51
90.0
 52
90.0
 71
     2
 49
0.5
 62
   256
  6
BYLAYER
 49
-0.5
 62
   256
  6
BYLAYER
  0
XRECORD
  5
771
102
{ACAD_REACTORS
330
770
102
}
330
770
100
AcDbXrecord
 90
        1
  0
XRECORD
  5
772
102
{ACAD_REACTORS
330
770
102
}
330
770
100
AcDbXrecord
 90
       70
  0
XRECORD
  5
773
102
{ACAD_REACTORS
330
770
102
}
330
770
100
AcDbXrecord
  1

  0
XRECORD
  5
774
102
{ACAD_REACTORS
330
770
102
}
330
770
100
AcDbXrecord
  1

  0
XRECORD
  5
775
102
{ACAD_REACTORS
330
770
102
}
330
770
100
AcDbXrecord
340
19
  0
XRECORD
  5
776
102
{ACAD_REACTORS
330
770
102
}
330
770
100
AcDbXrecord
340
18
  0
XRECORD
  5
777
102
{ACAD_REACTORS
330
770
102
}
330
770
100
AcDbXrecord
340
E
  0
XRECORD
  5
778
102
{ACAD_REACTORS
330
770
102
}
330
770
100
AcDbXrecord
 90
    10783
  0
XRECORD
  5
779
102
{ACAD_REACTORS
330
770
102
}
330
770
100
AcDbXrecord
 90
        0
  0
XRECORD
  5
77A
102
{ACAD_REACTORS
330
770
102
}
330
770
100
AcDbXrecord
 90
        0
  0
XRECORD
  5
77B
102
{ACAD_REACTORS
330
770
102
}
330
770
100
AcDbXrecord
  1
{05634E62-BC65-11D4-AD6E-00C0268E67FB}
  0
XRECORD
  5
77C
102
{ACAD_REACTORS
330
770
102
}
330
770
100
AcDbXrecord
  1
{05634E67-BC65-11D4-AD6E-00C0268E67FB}
  0
XRECORD
  5
77D
102
{ACAD_REACTORS
330
770
102
}
330
770
100
AcDbXrecord
 40
0.0
  0
XRECORD
  5
77E
102
{ACAD_REACTORS
330
770
102
}
330
770
100
AcDbXrecord
340
0
  0
XRECORD
  5
77F
102
{ACAD_REACTORS
330
770
102
}
330
770
100
AcDbXrecord
 70
     0
  0
XRECORD
  5
780
102
{ACAD_REACTORS
330
770
102
}
330
770
100
AcDbXrecord
340
0
  0
XRECORD
  5
781
102
{ACAD_REACTORS
330
770
102
}
330
770
100
AcDbXrecord
 10
0.0
 20
0.0
 30
0.0
  0
XRECORD
  5
782
102
{ACAD_REACTORS
330
770
102
}
330
770
100
AcDbXrecord
 10
0.0
 20
0.0
 30
0.0
  0
XRECORD
  5
783
102
{ACAD_REACTORS
330
770
102
}
330
770
100
AcDbXrecord
 10
0.0
 20
0.0
 30
0.0
  0
XRECORD
  5
784
102
{ACAD_REACTORS
330
770
102
}
330
770
100
AcDbXrecord
 10
0.0
 20
0.0
 30
0.0
  0
XRECORD
  5
785
102
{ACAD_REACTORS
330
770
102
}
330
770
100
AcDbXrecord
 10
0.0
 20
0.0
 30
0.0
  0
XRECORD
  5
786
102
{ACAD_REACTORS
330
770
102
}
330
770
100
AcDbXrecord
 10
0.0
 20
0.0
 30
0.0
  0
XRECORD
  5
787
102
{ACAD_REACTORS
330
770
102
}
330
770
100
AcDbXrecord
340
0
  0
XRECORD
  5
788
102
{ACAD_REACTORS
330
770
102
}
330
770
100
AcDbXrecord
 70
     0
  0
XRECORD
  5
789
102
{ACAD_REACTORS
330
770
102
}
330
770
100
AcDbXrecord
340
0
  0
XRECORD
  5
78A
102
{ACAD_REACTORS
330
770
102
}
330
770
100
AcDbXrecord
 10
0.0
 20
0.0
 30
0.0
  0
XRECORD
  5
78B
102
{ACAD_REACTORS
330
770
102
}
330
770
100
AcDbXrecord
 10
0.0
 20
0.0
 30
0.0
  0
XRECORD
  5
78C
102
{ACAD_REACTORS
330
770
102
}
330
770
100
AcDbXrecord
 10
0.0
 20
0.0
 30
0.0
  0
XRECORD
  5
78D
102
{ACAD_REACTORS
330
770
102
}
330
770
100
AcDbXrecord
 10
0.0
 20
0.0
 30
0.0
  0
XRECORD
  5
78E
102
{ACAD_REACTORS
330
770
102
}
330
770
100
AcDbXrecord
 10
0.0
 20
0.0
 30
0.0
  0
XRECORD
  5
78F
102
{ACAD_REACTORS
330
770
102
}
330
770
100
AcDbXrecord
 10
0.0
 20
0.0
 30
0.0
  0
ENDSEC
  0
EOF
